Underoath

Breathing In A New Mentality

Underoath

2 exibições
  • Violão
  • Guitarra
  • Teclado
  • Cavaquinho
  • Contra-baixo
  • Bateria
  • Gaita
  • Guitar Pro
Tabbed by: a HERON


Hey, this isn't my first tab, so it's probably not all that accurate, at all. Some parts 
correct though, and it'll be a base for other tabbers to work off, I guess.

This is the opening song off of Underoath's upcoming album Lost In The Sound Of 
coming out September 2nd, 2008.


Be sure to look at the bottom for the key, I made a few changes to the standard UG layout.


Tuning: Drop D (DADGBe)

Opening (:00-:22)
"I'm the desperate, and you're the savior..."
There's nothing really to tab out here. Things to note are that when they play live, Tim 
above the frets, by the tuning pegs, just one strum, and on the album it sounds like it 
like

e|--------------------------|
B|--------------------------|
G|--------------------------|
D|6-------------------------|
A|6-------------------------|
D|6-------------------------|

But that may be Chris' synth.

"There's been something..." (:23-:40)

The rhythm should be easy to figure out.

e|---------------------------------|
B|---------------------------------|
G|-7-------------------------------|
D|-7---0--1---0--1--0--------------|
A|-5---0--1---0--1--0--------------|
D|-----0--1---0--1--0--------------| x8


"Oh, God!" (:41-:59)

Same exact rhythm as the last part.

e|---------------------------------|
B|---------------------------------|
G|--------8------8-----------------|
D|-0---0--8---0--8--0--------------|
A|-0---0--6---0--6--0--------------|
D|-0---0------0-----0--------------| x8


Bridge Part (1:00-1:05)

Very simple.

e|-0-------------------------------|
B|-0-------------------------------|
G|-0-------------------------------|
D|-0----------------0--------------|
A|-0----------------0--------------|
D|-0----------------0--------------|


The next part (1:06-1:13) is just Chris doing his thing.


"I'm the desperate, and you're the savior..." (1:14-1:23)


This part is just feedback, and when they play live, they just strum open.


"Oh God, it's racing through my veins..." (1:24-1:51)


e|-------------------+----------------------------------|
B|-------------------+----------------------------------|
G|-------------------+----------------------------------|
D|-0----xx-6--0--0---+---0----xx-6--0--0----0-----------|
A|-0----xx-6--0--0---+---0----xx-6--0--0----0-----------|
D|-0----xx-6--0--0---+---0----xx-6--0--0----0-----------| x4


"It's over..." (1:52-2:09)

The guitars actually start playing different parts here. Problem is, I cannot figure out 
Tim is playing. This is one of the major problems with this tab. I have a small idea, 
it's not correct. Whatever.

Lead Guitar (Tim):

e|-------------------------------------13~-------------------------------|
B|-/15~---13--16~---13--15~--13~---13-------13--15~---13--16~---13~---13-|
G|-----------------------------------------------------------------------|
D|-----------------------------------------------------------------------|
A|-----------------------------------------------------------------------|
D|-----------------------------------------------------------------------|

Play that twice.

Rhythm Guitar (James):

e|-----------------------------------------------------------------------|
B|-----------------------------------------------------------------------|
G|-----------------------------------------------------------------------|
D|-----------------------------------------------------------------------|
A|----5------------xx-----5-------xx-----5-------------5-----------------|
D|-0-----3---1~----xx--0-----1~---xx--0-----3--1~---0-----3--1~----------|

"I hear the calling..." (2:10-2:28)

e|-------------|
B|-------------|
G|-------------|
D|-x-x-x-x-x-x-|
A|-x-x-x-x-x-x-|
D|-x-x-x-x-x-x-|

e|------------------------------------|
B|------------------------------------|
G|------------------------------------|
D|---------------0---0---xxxx--0-0-0--|
A|----5----------0---0---xxxx--0-0-0--|
D|-0-----3--1b---0---0---xxxx--0-0-0--| x4


"Tear me down..." (2:2(b9)2:37)

e|---------------------------------------------------------------------|
B|---------------------------------------------------------------------|
G|---------------------------------------------------------------------|
D|---------------------0---0---xxxx---0-0-0-----0---0---xxxx---0-------|
A|----5-----------0p---0---0---xxxx---0-0-0-----0---0---xxxx---0-------|
D|-0-----3--1b----0p---0---0---xxxx---0-0-0-----0---0---xxxx---0-------|


And, well, that's it. You can comment in... the comment section, and please, keep it 
it's not all that accurate.


Key:

| /  slide up to
| p  palm mute
| ~  vibrato
| b  bend
| +  feedback
| x  Mute note


Enviada por Sem inscrição
Nº de acordes: 0