The Drums
Main riff
    G                                   Em
e|--------------------------------------------------------------------------|
B|--------------------------------------------------------------------------|
G|-----------------------------14-16------------------------------14-16-----|
D|--16-16--16-16-16--16-16--17---------16-16--16-16-16--16-16--17-----------|
A|--------------------------------------------------------------------------|
E|--------------------------------------------------------------------------|

Then
e|--------------------------------------------------------------------------|
B|--------------------------------------------------------------------------|
G|--------------------------------------------------------------------------|
D|--16-16--16-16-16--16-16-17-16-12-16--------------------------------------|
A|--------------------------------------------------------------------------|
E|--------------------------------------------------------------------------|

In the chorus, just osccilate between these two notes
e|--------------------------------------------------------------------------|
B|--------------------------------------------------------------------------|
G|-----16-14--16-14---------------------------------------------------------|
D|--------------------------------------------------------------------------|
A|--------------------------------------------------------------------------|
E|--------------------------------------------------------------------------|
  • Enviada por: Sem inscrição
  • Exibições: 370
  • Nº de acordes: 2