Son of Dork

Eddies Song

Son of Dork

Compartilhar:

\ and / - slide up and down
~ - let it ring
* - palm mute
x - string mute
h - hammer on
= - underline sign

Intro:

i havent worked out the picking bit in the intro yet but when i do i will put it on the 
strait away!!!!

part 1

e----------------------------------|
B----------------------------------|
G----------------------------------|
D---8-8-----5-5---5-\-3-3-~~~~-----|
A---8-8-----5-5---5-\-3-3-~~~~-----|
E---6-6-----3-3---3-\-1-1-~~~~-----|

part 2

e-----------------------------|
B-----------------------------|
G---8-/-10-/-12-/-12-/-13-----|
D---x-/-x--/-x--/-x--/-x------|
A---6-/-8--/-10-/-14-/-15-----|
E-----------------------------|

part 3

e------------------------------------------|
B------------------------------------------|
G--10-10-----------------------------------|
D--x--x---8-8-8--12-12-12-12-\-10-\-8------|  X3
A--8--8---x-x-x--x--x--x--x--\-x--\-x------|
E---------6-6-6--10-10-10-10-\-8--\-6------|

play part 2 again.

verse:

e---------------------------------------------------------------------|
B---------------------------------------------------------------------|
G---------------------------------------------------------------------|
D---------------------------------------------------------------------|
A--8--88888888888888888--5--5555555555555555--3--3333333333333333-----|
E--6--66666666666666666--3--3333333333333333--1--1111111111111111-----|
      *****************     ****************     ****************
e----------------------------|
B----------------------------|
G----------------------------|
D----88888888888888888-------|
A----66666666666666666-------|
E----------------------------|
     *****************
   ======================

play this X2 but on the 2nd time through dont play the bit underlined play this instead:

e-----------------------------|
B-----------------------------|
G--8-/-10-/-12-/-14-/-15------|
D--x-/-x--/-x--/-x--/-x-------|
A--6-/-8--/-10-/-12-/-13------|
E-----------------------------|


chorus:

e------------------------------------------------------|
B------------------------------------------------------|
G------------------8-x-7-x-5-x------------88888888-----|
D--88888888--5555--x-x-x-x-x-x--33333333--88888888-----| X2
A--88888888--5555--6-x-5-x-3-x--33333333--66666666-----|
E--66666666--3333---------------11111111---------------|

this bit is played just before the 2nd verse:

e---------------------------------------------|
B---------------------------------------------|
G---------------------------------------------|
D--------------------------88888888888888-----|
A--888888888888---6-6-/-8--88888888888888-----|
E--666666666666---4-4-/-6--66666666666666-----|
   ************            **************
verse:

chorus:

bridge:

e----------------------------------------------------------------------|
B----------------------------------------------------------------------|
G--10-10---------------------------------10-10-------------------------|
D--x--x---8-8-8--12-12-12-12-\-10-\-8----x--x---8-8-8--12-12-12-12-----|
A--8--8---x-x-x--x--x--x--x--\-x--\-x----8--8---x-x-x--x--x--x--x------|
E---------6-6-6--10-10-10-10-\-8--\-6-----------6-6-6--10-10-10-10-----|

e--------------|
B--------------|
G--------9-----|
D--\-10--x-----| X3
A--\-x---7-----|
E--\-8---------|

then play this:

e----------------------------------------------------------|
B----------------------------------------------------------|
G--10-10---------------------------------------------------|
D--x--x---8-8-8--12-12-12-12-\-10-\-8-\-7-/-8----8-~~~-----|
A--8--8---x-x-x--x--x--x--x--\-x--\-x-\-x-/-x----x-~~~-----|
E---------6-6-6--10-10-10-10-\-8--\-6-\-5-/-6----6-~~~-----|

this part of the bridge is played clear:

e-----------------------|
B-----------------------|
G-----------------------|
D--8-8--8--8h10--10-----| X4
A-----------------------|
E-----------------------|


e------------------------------|
B------------------------------|
G------------------------------|
D--8-8--12-12-12-12--10--8-----| X7
A------------------------------|
E------------------------------|

put grunge back on for this:

e----------------|
B----------------|
G----------------|
D----------------|
A--888888888-----|
E--666666666-----|
   *********

play chorus X2 but on 2nd time play this:

e------------------------------------------------------------------|
B------------------------------------------------------------------|
G---------------------------------8-8-8-8--8-~~--8-8-8-8--8--8-----|
D--88888888--55555555--33333333---8-8-8-8--8-~~--8-8-8-8--8--8-----|
A--88888888--55555555--33333333---6-6-6-6--6-~~--6-6-6-6--6--6-----|
E--66666666--33333333--11111111------------------------------------|
                                  *******        *******
e------------------------------------------------------------------|
B------------------------------------------------------------------|
G---------------------------------8-8-8-8--8-~~--8-8-8-8--8-~~-----|
D--88888888--55555555--33333333---8-8-8-8--8-~~--8-8-8-8--8-~~-----|
A--88888888--55555555--33333333---6-6-6-6--6-~~--6-6-6-6--6-~~-----|
E--66666666--33333333--11111111------------------------------------|
                                  *******        *******
e----------------------------------------|
B----------------------------------------|
G--8-8-8-8--8-~~-----8-8-8-8-8-8-8-8-----|
D--8-8-8-8--8-~~-----8-8-8-8-8-8-8-8-----|
A--6-6-6-6--6-~~-----6-6-6-6-6-6-6-6-----|
E----------------------------------------|
   *******           ***************

  • Enviada por: Sem inscrição
  • Exibições: 20
  • Nº de acordes: 0