Slipknot

My Plague

Slipknot

Compartilhar:

a versão do cd original

Mick sozinho

C#--------------------------------
G#--------------------------------
E---------------------------------  2x
B---------------------------------
F#--------------------------------
B-00000000000000333333336611111111

aqui u james começa a tocar

C#--------------------------------
G#--------------------------------
E---------------------------------  2x
B---------------------------------
F#00000000000000333333336611111111
B-00000000000000333333336611111111

C#------------------------------------------------
G#------------------------------------------------
E-------------------------------------------------x2
B-------------------------------------------------
F#0-0-0--00--0-0-0--01033^0-0-0--00--0-0-0--0103--
B-0-0-0--00--0-0-0--0103--0-0-0--00--0-0-0--01033~

o james toca essa parte 8 vezes

C#---------------------------------------
G#---------------------------------------
E----------------------------------------  x4
B----------------------------------------
F#---------------------------------------
B-777771010105555577733333555111110000000

o james não toca essa parte

C#----------------------
G#----------------------
E-22222-----------------  x4
B------3322--22553322222
F#---------44-----------
B-----------------------

C#----------------------------------
G#----------------------------------
E-----------------------------------
B-----------------------------------
F#3-3--33-3--3-3--33-3-3--33-3-3-1-1
B-3-3--33-3--3-3--33-3-3--33-3-3-1-1

C#-----------------------------
G#-----------------------------
E------------------------------
B------------------------------  x2
F#0-0000000000003-3333336-11131
B-0-0000000000003-3333336-11131

C#---------------------------------------
G#---------------------------------------
E----------------------------------------
B----------------------------------------
F#---------------------------------------
B-777771010105555577733333555111110000000

C#-----------------------
G#-----------------------
E------------------------
B------------------------
F#-------------------1300
B-77777101010555557771300

o james toca essa parte x4

C#---------------------------------------
G#---------------------------------------
E---------------------------------------- x2
B----------------------------------------
F#---------------------------------------
B-777771010105555577733333555111110000000

o james não toca essa parte

C#----------------------
G#----------------------
E-22222-----------------  x2
B------3322--22553322222
F#---------44-----------
B-----------------------

C#----------------------------------
G#----------------------------------
E-----------------------------------
B-----------------------------------
F#3-3--33-3--3-3--33-3-3--33-3-3-1-1
B-3-3--33-3--3-3--33-3-3--33-3-3-1-1

o james toca essa parte x2

C#-----------------------------
G#-----------------------------
E------------------------------
B------------------------------  x4
F#0-0000000000003-3333336-11131
B-0-0000000000003-3333336-11131

só o james toca essa parte

C#------------------------------------------
G#------------------------------------------
E------------------------------------------- x2
B-------------------------------------------
F#0-00000101012121515171719183-3333336-11111
B-0-00000101012121515171719183-3333336-11111

C#------------------------------------------------
G#------------------------------------------------
E-------------------------------------------------x2
B-------------------------------------------------
F#0-0-0--00--0-0-0--01033^0-0-0--00--0-0-0--0103--
B-0-0-0--00--0-0-0--0103--0-0-0--00--0-0-0--01033~

C#------------------------------------------------
G#------------------------------------------------
E-------------------------------------------------x2
B-------------------------------------------------
F#1-1-1--11--1-1-1--01033^1-1-1--11--1-1-1--0103--
B-1-1-1--11--1-1-1--0103--1-1-1--11--1-1-1--01033~

C#----------------------------------
G#----------------------------------
E-----------------------------------
B-----------------------------------
F#3-3--33-3--3-3--33-3-3--33-3-3-1-1
B-3-3--33-3--3-3--33-3-3--33-3-3-1-1

C#--------------------------------
G#--------------------------------
E---------------------------------
B---------------------------------
F#--------------------------------
B-11111333115553377755101010775557

o james toca essa parte x2

C#-----------------------------
G#-----------------------------
E------------------------------
B------------------------------  x4
F#0-0000000000003-3333336-11131
B-0-0000000000003-3333336-11131

só o james toca essa parte

C#------------------------------------------
G#------------------------------------------
E------------------------------------------- x2
B-------------------------------------------
F#0-00000101012121515171719183-3333336-11111
B-0-00000101012121515171719183-3333336-11111

C#------------------------------------------------
G#------------------------------------------------
E-------------------------------------------------
B-------------------------------------------------
F#0-0-0--00--0-0-0--01033^0-0-0--00--0-0-0--01036543210
B-0-0-0--00--0-0-0--0103--0-0-0--00--0-0-0--01036543210

C#--------------------------------------------------
G#--------------------------------------------------
E---------------------------------------------------
B---------------------------------------------------
F#0-0-0--0-0-0--00--0-0-0--01033^0-0-0--00-0-0-0--01030000000
B-0-0-0--0-0-0--00--0-0-0--0103--0-0-0--00-0-0-0--01030000000

C#------------------------------------------------
G#------------------------------------------------
E-------------------------------------------------
B-------------------------------------------------
F#0-0-0--00--0-0-0--01033^0-0-0--00--0-0-0--0103--
B-0-0-0--00--0-0-0--0103--0-0-0--00--0-0-0--01033~
  • Enviada por: Sem inscrição
  • Exibições: 359
  • Nº de acordes: 3