Slipknot

Interloper

Slipknot

73 exibições
Notes:
w - whole note
h - half note
q - quarter note
e - eighth note
s - sixteenth note

notes without lengths are grace notes

Rests:
W - whole rest
H - Half rest
Q - quarter rest
E - eighth rest
S - sixteenth rest

Articulations:
/ - slide up
\ - slide down
~ - vibrato

intro riff 1:
C#|--------------------|----------------------|
G#|--------------------|----------------------|
E |--------------------|----------------------|
B |--------------------|----------------------|
F#|--------------------|----------------------|
B |--0-1-0-1-0-1-0-1---|--0-1-0-1-0-1-0-1/8~--|
s e s e s e s e Q s e s e s e s e q

C#|--------------------|------------------------|
G#|--------------------|------------------------|
E |--------------------|------------------------|
B |--------------------|------------------------|
F#|--------------------|----------------0---3---|
B |--0-1-0-1-0-1-0-1---|--0-1-0-1-0-1---0---3---|
| s e s e s e s e Q | s e s e s e+s e+s e+s |
| | |
C#|--------------------|------------------------|
G#|--------------------|------------------------|
E |--------------------|------------------------|
B |--------------------|------------------------|
F#|--------------------|----------------0---3---|
B |--------------------|----------------0---3---|
W H+E e+s e+s

intro riff 2:
1. - 4. 5.
C#|--------------------|----------------------|----------------------|--------|
G#|--------------------|----------------------|----------------------|--------|
E |.-------------------|---------------------.|----------------------|--------|
B |.-------------------|---------------------.|----------------------|--------|
F#|--0-1-0-1-0-1-0-1---|--0-1-0-1-0-1-0-------|--0-1-0-1-0-1-0-------|--------|
B |--0-1-0-1-0-1-0-1---|--0-1-0-1-0-1-0-1/8~--|--0-1-0-1-0-1-0-1/8~--|--(8)~--|
s e s e s e s e Q s e s e s e s e q s e s e s e s e q + w

verse:
C#|--19b20.5---19b20.5r19--|
G#|------------------------|
E |.----------------------.|
B |.----------------------.|
F#|------------------------|
B |------------------------|
q+e E q q

bridge:
C#|-------------------------------------------|
G#|-------------------------------------------|
E |.------------------------------------------|
B |.------------------------------------------|
F#|--*----------------------------------------|
B |--8-8-8-8-8-8-8-8-8-8-8-8-8-8-8b8.5-8b8.5--|
s s s s s s s s s s s s s s s s
*gradual bend across 2 bars

C#|---------------------------------------------------------------------------------|
G#|---------------------------------------------------------------------------------|
E |--------------------------------------------------------------------------------.|
B |--------------------------------------------------------------------------------.|
F#|---------------------------------------------------------------------------------|
B |-8b9-8b9-8b9-8b9-8b9-8b9-8b9.5-8b9.5-8b10-8b10-8b10.5-8b10.5-8b11-8b11-8b11-8b11-|
s s s s s s s s s s s s s s s s

chorus riff 1:
C#|----------------|
G#|----------------|
E |.--------------.|
B |.--------------.|
F#|--2---1-2-1-2---|
B |--2---1-2-1-2---|
e Q q e s e+s

chorus riff 2:
C#|----------------|----------|
G#|----------------|----------|
E |.--------------.|----------|
B |.--------------.|----------|
F#|--2---1-2-1-2---|--2-------|
B |--2---1-2-1-2---|--2-------|
q+e q e s e+s e H+Q+E

chorus riff 3:
C#|-------------------------|
G#|-------------------------|
E |.-----------------------.|
B |.-----------------------.|
F#|--2-2-2-1-2-2-2-2-1-1-1--|
B |--2-2-2-1-2-2-2-2-1-1-1--|
s e s e s e s e s s e

break:
C#|------------------------|
G#|------------------------|
E |------------------------|
B |------------------------|
F#|--x-x-x-x-x-x-x-x-x-x\--|
B |--x-x-x-x-x-x-x-x-x-x\--|
s e e s s e s s s q

-> chorus riff 3

-> intro riff 2

end:
C#|-----------------------------|
G#|-----------------------------|
E |-----------------------------|
B |-----------------------------|
F#|--x-x-x-x-x-x-x-x-x-4-3-2-1--|
B |--x-x-x-x-x-x-x-x-x-4-3-2-1--|
s e e s s e s s s s s s s
 


Enviada por Sem inscrição
Nº de acordes: 1