Slipknot

I Am Hated

Slipknot

113 exibições
Slipknot
I am Hated 
Afinação drop b (B,F#,B,E,G#,C#)

Intro
C#|--------------------------|
G#|--------------------------|
E |--------------------------|
B |--0-0-0--5-6---0-0-0--5-6-|3x
F#|--0-0-0--5-6---0-0-0--5-6-|
B |--0-0-0--5-6---0-0-0--5-6-|
PM   - - -        - - -

Versos
C#|------------------|
G#|------------------|
E |------------------|
B |-0-00-1-0-0-6-1---|
F#|-0-00-1-0-0-6-1---|
B |-0-00-1-0-0-6-1---|
Pm  - -- - - - - -  


Refrão
C#|----------------|
G#|----------------|
E |----------------|
B |-00-6-1-000-6-1-|
F#|-00-6-1-000-6-1-|
B |-00-6-1-000-6-1-|

Ponte
C#|----------------|
G#|----------------|
E |--7v--------7v--|
B |----------------|
F#|----------------|
B |----------------|

repete versos
REpete refrão

Ponte2
C#|--------------3-|
G#|----------------|
E |--------------3-|
B |--0---3-6-0-----|
F#|--0---3-6-0-----|
B |--0---3-6-0-----|

Repete intro
repete versos

REpete refrão



Enviada por Sem inscrição
Nº de acordes: 2