Slipknot

Before I Forget

Slipknot

Compartilhar:

Tuning: Drop B: B,F#,B,E,G#,C#

Symbols: ~ = Vibrato
         . = Palm mute
         * = Harmonic
         b = Bend
         h = Hammer
         p = Pull-off
         / = Slide
         X = Mute
         } = Let the note ring
[Intro] Mick:
----------------------|
----------------------|
----------------------|  X4
--02-20-32-02-032-----|
--02-20-32-02-032-----|
--02-20-32-02-032-----|   

Mick & James:

----------------------|
----------------------|
----------------------|  X3
--02-20-32-02-032-----|
--02-20-32-02-032-----|
--02-20-32-02-032-----|

----------------------------|
----------------------------|
----------------------------|  
--02-20-0-5-5-50--5-5-50----|
--02-20-0-5-5-50--5-5-50----|
--02-20-0-5-5-50--5-5-50----|

[Pre-verse] M&J:

----------------------|
----------------------|
----------------------|  X3
--02-20-32-02-032-----|
--02-20-32-02-032-----|
--02-20-32-02-032-----|

----------------------|
----------------------|
----------------------|  
--02-20-0-5-5-50------|
--02-20-0-5-5-50------|
--02-20-0-5-5-50------|

----------------------|
----------------------|
----------------------|  X3
--02-20-32-02-032-----|
--02-20-32-02-032-----|
--02-20-32-02-032-----|




----------------------------|
----------------------------|
----------------------------|  
--02-20-0-5-5-50--5-5-50----|
--02-20-0-5-5-50--5-5-50----|
--02-20-0-5-5-50--5-5-50----|


[Verse] M&J:
---------------------------------------------------|
---------------------------------------------------|
---------------------------------------------------|
--22222-2222-22222-2222-22222-2222-22222-0-5-5-50--|  X4
--22222-2222-22222-2222-22222-2222-22222-0-5-5-50--|
--22222-2222-22222-2222-22222-2222-22222-0-5-5-50--|
  ....  ...  ....  ...  ....  ...  ....  

[Pre-chorus] M&J:

Mick:
---------------------------------------------------|  
---------------------------------------------------|
--9}----------12}----------11}---------10}---------|
---------------------------------------------------| 
  • Enviada por: Sem inscrição
  • Exibições: 3.913
  • Nº de acordes: 0