Seether

Fake It

Seether

88 exibições
Tabbed by BJP of Fixing Benjamin
Tuning: Half a step down (Eb)

Legend:
h = Hammer on
p = Pull off
x = Dead note
/ = Slide

Bass intro...

A#||-----------------|-----------------|------------------|------------|
C#||-----------------|-----------------|------------------|------------|
F#||x----xx-----x----|x xx x-----------|-x----xx-----x----|x--xx-x-----|

Who's to know if your soul will fade at all?
The one you sold to fool the world
You lost your self-esteem along the way...

D#|--------------|-----------------|-----------------|------------------|
A#|--------------|-----------------|-----------------|------------------|
C#|6-6-x--------x|4-4--4-x---------|-6--6-x---------x|4-4--4-x----------|
D#|6-6-x-2-2--2-x|4-4--4-x--4-4-4p2|-6--6-x--2-2--2-x|4-4--4-x--4-4--4p2|
F#|4-4-x-2-2--2-x|2-2--2-x--4-4-4p2|-4--4-x--2-2--2-x|2-2--2-x--4-4--4p2|
G#|------0-0--0--|----------2-2-2p0|0--------0-0--0--|----------2-2--2p0|


Good god, you're comin' up with reasons
Good god, you're draggin' it out
and Good god, it's the changing of the seasons
I feel so raped, so follow me dooooooown!

D#||--------------------|----------------------||
A#||--------------------|----------------------||
C#||---6--6-x--6-6--6---|-----------------2----||
D#||---6--6-x--6-6--6---|--2-2--2-x--2/4--2----||
F#||---4--4-x--4-4--4---|--2-2--2-x--2/4--0----||
G#||--------------------|--0-0--0----0/2-------||

and just!
Fake it if your out of direction
Fake it if you don't belong, yeah
Fake it if you feel like infection
Whoa ooh, you're such a fuckin' hypocrite


D#||---4-----------------|----------------------||
A#||---4-----------------|----------------------||
C#||--x6-----------------|----------------------||
D#||--x6-----------------|----------------------||
F#||---4-----------------|----------------------||
G#||---4----xx-----x-----|--x xx----------------||

You should know that the lies won't hide your flaws
No sense in hiding all of yours
You gave up on your dreams along the way, yeheah

D#|--------------|-----------------|-----------------|------------------|
A#|--------------|-----------------|-----------------|------------------|
C#|6-6-x--------x|4-4--4-x---------|-6--6-x---------x|4-4--4-x----------|
D#|6-6-x-2-2--2-x|4-4--4-x--4-4-4p2|-6--6-x--2-2--2-x|4-4--4-x--4-4--4p2|
F#|4-4-x-2-2--2-x|2-2--2-x--4-4-4p2|-4--4-x--2-2--2-x|2-2--2-x--4-4--4p2|
G#|------0-0--0--|----------2-2-2p0|0--------0-0--0--|----------2-2--2p0|

Good god, you're comin up with reasons
Good god, you're dragging it out
and Good god, it's the changing of the seasons
I feel so raped, so follow me down and just 

D#||--------------------|----------------------||
A#||--------------------|----------------------||
C#||---6--6-x--6-6--6---|-----------------2----||
D#||---6--6-x--6-6--6---|--2-2--2-x--2/4--2----||
F#||---4--4-x--4-4--4---|--2-2--2-x--2/4--0----||
G#||--------------------|--0-0--0----0/2-------||

Fake it if you're out of direction
Fake it if you don't belong, yeah
Fake it if you feel like infection
whoa oohh, you're such a fuckin hypocrite

D#||---------------------|----------------------||
A#||---------------------|----------------------||
C#||-------------22222222|------------9\8\7\6p0-||
D#||---22222222--22222222|--22222222--xxxxxxxx--||
F#||---22222222--00000000|--22222222--77665544--||
G#||---00000000----------|--00000000------------||


whoa oohh, ooh ooh a ooh oh...


D#||--------------------|-----------------------||
A#||--------------------|-----------------------||
C#||---66-6-6-4-44-4----|-----------------------||
D#||---66-6-6-4-44-4----|--4-44-4--2-22-2-------||
F#||---44-4-4-2-22-2----|--4-44-4--2-22-2 ------||
G#||--------------------|--2-22-2--0-00-0-------||

I can fake with the best of anyone
I can fake with the best of them all
I can fake it with the best of anyone
I can fake it all


D#||---4-----------------|----------------------||
A#||---4-----------------|----------------------||
C#||---6-----------------|----------------------||
D#||---6-----------------|----------------------||
F#||---4-----------------|----------------------||
G#||---4----xx-----x-----|--x xx x--------------||

Who's to know if your soul will fade at all
The one you sold to fool the world
You lose your self-esteem along the way

D#|--------------|-----------------|-----------------|------------------|
A#|--------------|-----------------|-----------------|------------------|
C#|6-6-x--------x|4-4--4-x---------|-6--6-x---------x|4-4--4-x----------|
D#|6-6-x-2-2--2-x|4-4--4-x--4-4-4p2|-6--6-x--2-2--2-x|4-4--4-x--4-4--4p2|
F#|4-4-x-2-2--2-x|2-2--2-x--4-4-4p2|-4--4-x--2-2--2-x|2-2--2-x--4-4--4p2|
G#|------0-0--0--|----------2-2-2p0|0--------0-0--0--|----------2-2--2p0|

Good god, you're comin up with reasons
Good god, you're dragging it out
and Good god, it's the changing of the seasons
I feel so raped, so follow me down and just

D#||--------------------|----------------------||
A#||--------------------|----------------------||
C#||---6--6-x--6-6--6---|-----------------2----||
D#||---6--6-x--6-6--6---|--2-2--2-x--2/4--2----||
F#||---4--4-x--4-4--4---|--2-2--2-x--2/4--0----||
G#||--------------------|--0-0--0----0/2-------||

Fake it if you're out of direction
Fake it if you don't belong, yeah
Fake it if you feel like infection
whoa oohh, your such a fuckin' hypocrite


Enviada por Sem inscrição
Nº de acordes: 0