Red Hot Chili Peppers

Storm In A Teacup

Red Hot Chili Peppers

35 exibições
Intro: (Using wah)0:00

e|-x-x-x-x-x--x--x-x-x-x-x-x-x---|
B|-x-x-x-x-x--x--x-x-x-5-5-3-3---|It sounds as if 2 guitars are playing
G|-x-x-x-x-x--x--x-x-x-5-5-3-3---|here so instead of putting both up ive
D|-3h5-5-5-3-(0)-5-3-5-5-5-3-3---|put both bits into one if that makes sense
A|-x-x-x-x-x--x--x-x-x-x-x-x-x---|
E|-x-x-x-x-x--x--x-x-x-x-x-x-x---|Repeat throughout 1st verse

00:37 2nd verse

e|-15-15-15-15|15-15-15-15|15-15-15-15|15-15-15-15-|
B|-15-15-15-15|15-15-15-15|15-15-15-15|15-15-15-15-|
G|-------------------------------------------------|x2
D|-------------------------------------------------|
A|-------------------------------------------------|
E|-------------------------------------------------|

00:42

e|-14-14-14-14|14-14-14-14|14-14-14-14|14-14-14-14-|
B|-14-14-14-14|14-14-14-14|14-14-14-14|14-14-14-14-|
G|-------------------------------------------------|x2
D|-------------------------------------------------|
A|-------------------------------------------------|
E|-------------------------------------------------|

00:47

e|-15-15-15-15|15-15-15-15|15-15-15-15|15-15-15-15-|
B|-15-15-15-15|15-15-15-15|15-15-15-15|15-15-15-15-|
G|-------------------------------------------------|x2
D|-------------------------------------------------|
A|-------------------------------------------------|
E|-------------------------------------------------|

00:51

e|-14-14-14-14|14-14-14-14|14-14-14-14|14-14-14-14-|
B|-14-14-14-14|14-14-14-14|14-14-14-14|14-14-14-14-|
G|-------------------------------------------------|x2
D|-------------------------------------------------|
A|-------------------------------------------------|
E|-------------------------------------------------|
Chorus: 00:56

e|-------------------------|
B|-------------------------|
G|-------------------------|x3
D|-1010108-8-8-3-3-3-5-5-5-|
A|-1010108-8-8-3-3-3-5-5-5-|
E|-8-8-8-6-6-6-1-1-1-3-3-3-|

Final time: 01:10

e|--------------------------------|
B|--------------------------------|
G|--------------------------------|
D|-1010108-8-8-121212121212s151515|
A|-1010108-8-8-121212121212s151515|
E|-8-8-8-6-6-6-101010101010s131313|

01:17

e|-----------------------------------------|
B|-----------------------------------------|
G|-----------------------------------------|
D|-5-5-3-5-5-3-5-5-3-5-5-3-5-5-3-5-5-3-5~~~|
A|-5-5-3-5-5-3-5-5-3-5-5-3-5-5-3-5-5-3-5~~~|
E|-3-3-1-3-3-1-3-3-1-3-3-1-3-3-1-3-3-1-3~~~|

01:27 Intro riff
01:36 Verse 3
01:54 Chorus 2

01:58                     02:03                02:07

e|--------13-----------------------------------------------------------------|
B|--13b15----13b15~~~-----------11-----------------6-------------------------|
G|------------------------10b12----10b12r10~~--5b7---5b7r5~~5b6r5~~2b3r2~~---|
D|----------------------------------------------------------------------(3)-|
A|---------------------------------------------------------------------------|
E|---------------------------------------------------------------------------|

 02:16

e|-----------------13b15r13b15r13---|
B|-----------6b8--------------------|
G|-5b7~~~~--------------------------|
D|--------5-------------------------|
A|----------------------------------|
E|----------------------------------|

02:26 with intro riff playing over.

e|------------------------------|
B|---------------8--6-----------|
G|---------------------7--5-----|
D|--5--3---------5--3-----------|
A|--------5--3---------5--3-----|
E|------------------------------|

 02:37

e|-------------------------------13b15r13-10------15--18--20b22r20--18b20-|
B|----11-13-13b14r13-11----11-13---------------18-------------------------|
G|-12-------------------12------------------------------------------------|
D|------------------------------------------------------------------------|
A|------------------------------------------------------------------------|
E|------------------------------------------------------------------------|

Verse Rhythm: 02:44
3rd Chorus: 03:04

Final Solo: 03:24

e|131013101310131013101310131013101310131013101310--13b15-13b15r13-|
B|-----------------------------------------------------------------|
G|-----------------------------------------------------------------|
D|-----------------------------------------------------------------|
A|-----------------------------------------------------------------|
E|-----------------------------------------------------------------|
 03:28
e|-------13------------------13---------------------------------------------------------|
B|-13b15-----11b13r11--13b15------11b13r11-11b13-11-------------------------------------|
G|---------------------------------------------------12b14---(10)--10b12~~~-------------|
D|--------------------------------------------------------------------------------------|
A|------------------------------------------------------------------------17-15---------|
E|-------------------------------------------------------------------------------13h15--|

Song order:
Intro 00:00
Verse 1: 00:18
Verse 2: 00:37
1st Chorus: 00:56
Intro riff: 01:27
Verse 3: 01:36
2nd Chorus: 01:55
Breakdown: 02:26
1st Solo: 02:37
Verse 3: 02:45
Last chorus: 03:03
Final Solo: 03:24

| /  slide up
| \  slide down
| h  hammer-on
| p  pull-off
| ~  vibrato
| +  harmonic
| x  Mute note


Enviada por Sem inscrição
Nº de acordes: 0