Nirvana

Heart Shaped Box

Nirvana

1.501 exibições
Note: Drop D tuning

Intro: 
E-------------------------------------------------------------------------
B-------------------------------------------------------------------------
G-----2----------------------------------2------------------------------0-
D---2---2-----3----------0-----0-----2-2---2-----3------2/4-4---4----4--0-
A-0---------3---3-----0-----0---0----0---------3--------------0---3--3----
D---------3---------0------------------------3-----3--0-------------------
This is played ONCE only at the start


VERSE. It is played 4 times in each verse:
E-----------------------------------------------------------------------------
B-----2-----------------------------------------------------------------------
G-----2---------------------------------------2-------------------------------
D-2-2---2------3-----------0---------0------2---2------3-------2/4-4--4------0
A-0----------3---3-----0-3--------0--0----0----------3---3----------0---3-3--0
D----------3---------0----------0------------------3---------0----------------

On the 4th and last time in each verse, the part with the slide in the above riff
is played with distortion so that it moves into the distorted chorus.

CHORUS
E-----------------------------------------------------
B-----------------------------------------------------
G---------4b-(5)-------4b--(5)---------------4b-(5)---
D---2-2------------3-3---------------3---3------------
A---0-0------------3-3-----------0-0---0---3----------
D------------------3-3-----------0-0------------------

E------------------------------------------------------
B---------4b-(5)--------4b--(5)------------------------
G---------4b-(5)--------4b--(5)---------------4-5------
D---2-2------------3-3---------------4---3-------------
A---0-0------------3-3-----------0-0---0---3-----------
D------------------3-3-----------0-0-------------------

The above two bars are played three times then the below part is played once to
end the chorus:

E----------------------------------------------------------------------------
B----------------------------------------------------------------------------
G------------------------4b(5)---4b-(5)------------------------------------0-
D--3-3-3-3-3-3-3-3--0--0-------0--------0---3-3-3-3-3-3-3-3--0-0-0-0-0-----0-
A--3-3-3-3-3-3-3-3--0--0-------0--------0---3-3-3-3-3-3-3-3--0-0-0-0-0-3-3---
D--3-3-3-3-3-3-3-3--0--0-------0------------3-3-3-3-3-3-3-3--0-0-0-0-0-------
             "you advice"


SOLO (with fuzz)
E-------------------------------------------------------------------
B-------8b-(10)--(8)--6------6b-(8)-(6)------5b-(6)-(5)--3---1---0--
G-----------------------------------------3-------------------------
D---7---------------------5---------------3-------------------------
A-------------------------------------------------------------------
D-------------------------------------------------------------------	

E-------------------------------------------------------------------
B-------8b-(10)--(8)---------6b-(8)-(6)------5b-(6)-(5)--3---1---0--
G-----------------------------------------3-------------------------
D---7---------------------5---------------3-------------------------
A-------------------------------------------------------------------
D-------------------------------------------------------------------	

E-------------------------------------------------------------------
B-------------------------------------------------------------------
G--2-----------------------2------------------------------------------
D--2-----------------------2------------------------------------------
A--0-----------------------0------------------------------------------
D-------------------------------------------------------------------	
On this last part, the A chord is struck twice. Turn the fuzz off just before
playing it the second time, and then go back to clean verse.


Enviada por Sem inscrição
Nº de acordes: 0