Linkin Park

Little Things Give You Away

Linkin Park

92 exibições
  • Violão
  • Guitarra
  • Teclado
  • Cavaquinho
  • Contra-baixo
  • Bateria
  • Gaita
  • Guitar Pro
Tabbed by Stephen McGuire
Tuning – (D-A-D-G-b-e)

Guitar 1 –acoustic
Intro/verse x4
-------------------------------------------------------------------------------|
-------------------------------------------------------------------------------|
-------------------------------------------------------------------------------|
----10-10-10-10-10-10-10—10-10-10-9--7—-4—-4—-4--4-5-5--5-5-5-4-4--4-4-4-2-2---|
----7--7--7--7--7--7--7--7--7--7--7--7--0--0--0--0-0-0--0-0-0-0-0--0-0-0-0-0---|
----7--7--7--7--7--7--7--7--7--7--7--7--0--0--0--0-0-0--0-0-0-0-0--0-0-0-0-0---|

Pre-chorus
-----------------------------------------------------------------------------------|
-----------------------------------------------------------------------------------|
-----------------------------------------------------------------------------------|
--12--12--12--12--12--12--9--9--9--9--9--9--4—-4—-4--4-5-5--5-5-5-4-4--4-4-4-2-2---|
--10--10--10--10--10--10--7--7--7--7--7--7--0--0--0--0-0-0--0-0-0-0-0--0-0-0-0-0---|
--10--10--10--10--10—-10--7--7--7--7--7--7--0--0--0--0-0-0--0-0-0-0-0--0-0-0-0-0---|

--------------------------------------------------------------|
--------------------------------------------------------------|
--------------------------------------------------------------|
--12---12---12---12---12---12---4---4---4---4---4---4---4-----|
--10---10---10---10---10---10---0---0---0---0---0---0---0-----|
--10---10---10---10---10-—-10---0---0---0---0---0---0---0-----|

1st Chorus part one x2
--------------------------------------------------------------|
--------------------------------------------------------------|
--------------------------------------------------------------|
--7---7---7---5---5---5---0---0---0---2---2---2---------------|
--7---7---7---5---5---5---0---0---0---2---2---2---------------|
--7---7---7---5---5---5---0---0---0---2---2---2---------------|

1st Chorus x1 part two
-----------------------------------------------------------------------|
-----------------------------------------------------------------------|
-------------------5--5--5---------------------------------------------|
-7--7--7--5--5--5--5—-5--5--0-—0--0--3-—3--3--3--3--3--5--5--5—-5~-----|
-7--7--7--5--5--5--3--3--3--0--0--0--3--3--3--3—-3—-3--5--5--5—-5~-----|
-7--7--7--5--5--5-----------0--0--0--3--3--3--3--3--3--5--5--5—-5~-----|

2nd chorus x2 part one
--------------------------------------------------------------|
--------------------------------------------------------------|
--------------------------------------------------------------|
--7---7---7---5---5---5---0---0---0---2---2---2---------------|
--7---7---7---5---5---5---0---0---0---2---2---2---------------|
--7---7---7---5---5---5---0---0---0---2---2---2---------------|

2nd chorus part two. Play this first time
--------------------------------------------------------------------------|
--------------------------------------------------------------------------|
--------------------5--5--5-----------------------------------------------|
--7--7--7--5--5--5--5—-5--5--0-—0--0--3-—3--3--3--3--3--2--2--2—-5--5—-5--|
--7--7--7--5--5--5--3--3--3--0--0--0--3--3--3--3—-3—-3--2--2--2—-5--5—-5--|
--7--7--7--5--5--5-----------0--0--0--3--3--3--3--3--3--2--2--2—-5--5—-5--|

Play this the second time.
-----------------------------------------------------------------------------------------------|
-----------------------------------------------------------------------------------------------|
--------------------5--5--5--------------------------------------------------------------------|
--7--7--7--5--5--5--5—-5--5--0-—0--0--3-—3--3--3--3--3--3--3--3—-3--3—-3—-5—-5—-5—-5—-5—-5—-5--|
--7--7--7--5--5--5--3--3--3--0--0--0--3--3--3--3—-3—-3--3--3--3—-3--3—-3—-5—-5--5—-5—-5--5—-5--|
--7--7--7--5--5--5-----------0--0--0--3--3--3--3--3--3—-3--3--3—-3--3—-3—-5—-5--5—-5—-5—-5—-5--|

Bridge/Outro x10
--------------------------------------------------------------------------------------------|
--------------------------------------------------------------------------------------------|
--------------------------------------------------------------------------------------------|
--8--8--8--8--8--8--8--8--8--8--8--8--10--10--10--10--10--10--10--10--10--10--10--10--------|
--8--8--8--8--8--8--8--8--8--8--8--8--10--10--10--10--10--10--10--10--10—-10—-10-—10--------|
--8--8--8--8--8--8--8--8--8--8—-8--8--10--10--10--10--10--10--10--10--10--10--10--10--------|


Guitar 2- clean-electric
Verse 2 x4
--------------------------------------------------------------------------|
--------------------------------------------------------------------------|
--------------------------------------------------------------------------|
--10-10-10-10-10-10-10-10—10-10-10-10-4--4--4--4--4--4--4--4—-4—-4—-4-—4--|
--7--7--7--7--7--7--7--7--7--7--7--7--0--0--0--0--0--0--0--0—-0-—0--0--0--|
--7--7--7--7--7--7--7--7--7--7--7--7--0--0--0--0--0--0--0--0—-0—-0-—0--0--|

Pre-chorus
---------------------------------------------------------------------------------|
--5--5--5--5--5—-5--5--5--5--5--5/8-8/7-7—-7-7-7/8-8--8-8-8/7-7—-7-7-7/5-5-5-----|
--x--x--x--x--x--x--x--x--x--x--x-x-x-x-x--x-x-x-x-x--x-x-x-x-x--x-x-x-x-x-x-----|
--2--2--2--2--2—-2--2--2--2--2—-2/5—5/4-4--4-4-4/5-5--5-5-5/4-4--4-4-4/2-2-2-----|
---------------------------------------------------------------------------------|
---------------------------------------------------------------------------------|

---------------------------------------|
--5--5--5--5--5--5--5--5--5--5--5--5---|
--x--x--x--x--x--x--x--x--x--x--x--x---|
--2--2--2--2--2--2--2--2--2--2--2--2---|
---------------------------------------|
---------------------------------------|

Chorus x2 part one
----------------------------------------------------------|
--10--10—-10--8--8--8-------------------------------------|
--x---x---x---x--x--x--7--7--7--9--9--9-------------------|
--7---7---7---5--5--5--x--x--x--x--x--x-------------------|
-----------------------5--5--5--7--7--7-------------------|
----------------------------------------------------------|

Part two – play this the first time
----------------------------------------------------------------------------------------|
--10--10--10--8--8--8--13--13--13-------------------------------------------------------|
--x---x---x---x--x--x--x---x---x---7--7--7--10--10--10--10—10--10—-9—-9—-9—-12—-12—-12--|
--7---7---7---5--5--5--10--10--10--x--x--x--x---x---x---x--x---x---x--x--x--x---x---x---|
-----------------------------------5--5--5--8---8---8---8--8---8---7-—7—-7-—10--10—-10--|
----------------------------------------------------------------------------------------|

Play this the second.
----------------------------------------------------------------------------------------------------|
-10--10--10--8--8--8--13--13--13--------------------------------------------------------------------|
-x---x---x---x--x--x--x---x---x---7--7--7—-10-10-10-10-10-10-10-10-10-10-10-10-12-12-12-12-12-12-12-|
-7---7---7---5--5--5--10--10--10--x--x--x—-x--x--x--x--x--x--x--x--x--x--x--x--x—-x--x—-x--x--x--x--|
----------------------------------5--5--5—-8--8--8--8--8—-8—-8-—8--8—-8—-8—-8—-10-10-10-10-10-10-10-|
----------------------------------------------------------------------------------------------------|

Before the solo
------------------------------------------------------------------------------------|
------------------------------------------------------------------------------------|
------------------------------------------------------------------------------------|
---5--4—-2~---2--2—-4~---5--4—-2~---2--2—-4~----------------------------------------|
------------------------------------------------------------------------------------|
------------------------------------------------------------------------------------|

-Slightly distorted
Solo
---------------7--7-5---5------------------------7~-7-5---5~-------------------------|
---8-7-5-5--5---------8----7b(8)r7---8-7-5-5~-5~--------8----7b(8)r7-----------------|
-------------------------------------------------------------------------------------|
-------------------------------------------------------------------------------------|
-------------------------------------------------------------------------------------|
-------------------------------------------------------------------------------------|

--------------------------10-10-10------------10---10-14--14-10--10-12-10-12-14-12-14--|
--8-7-5-5---5-7-5-7-8-7-8----------10-10-10-10--10------10-----10----------------------|
----------7----------------------------------------------------------------------------|
---------------------------------------------------------------------------------------|
---------------------------------------------------------------------------------------|
---------------------------------------------------------------------------------------|


---15-14-15-17-17-17------------------------------------|
---------------------19~~~~20--19—15~~~15~~~------------|
--------------------------------------------------------|
--------------------------------------------------------|
--------------------------------------------------------|
--------------------------------------------------------|

Outro x40
-----------------------------------|
--15------15--17-----17------------|
------14----------14----14---------|
-----------------------------------|
-----------------------------------|
-----------------------------------|


Enviada por Sem inscrição
Nº de acordes: 0