Gloria

Vai Pagar Caro Por Me Conhecer

Gloria

Compartilhar:

B ( B , F# , B , E , G# , C# )

Riff da introdução:
C#|----|-----------------------------------------------------------|--------------|
G#|-5--|-----------------------------------------------------------|--------------|
E||-4--|-----------------------------------------------------------|--------------|
B||-3--|-----------------------------------------------------------|-444444444444-|
F#|-2--|-----101010101010-999999(b9)6666666-7777777-33333333-55555555|-444444444444-|
B||-2--|-----------------------------------------------------------|-444444444444-|
                             			              pm----------.
Riff 1 

C#|-----------------------|-----------------------|
G#|-----------------------|-----------------------|
E||-----------------------|-----------------9/11--| 4X
B||--3-2-2-3-2-3-2-2-2-33-|-3-2-2-3-2-3-2-2-x/x---|
F#|--3-2-2-3-2-3-2-2-2-33-|-3-2-2-3-2-3-2-2-7(b9)--|
B||--3-2-2-3-2-3-2-2-2-33-|-3-2-2-3-2-3-2-2-------|
     pm.

Riffi 1

Chegou a hora e eu não vou correr
Não tenho medo pra te entregar

Minha amnésia apagou você
E Agora é minha vez de te falar

Eu não vou acreditar no
que você me diz (eu não vou!)
No que inventa para ser feliz (eu não vou!)
Nesse seu mundo que vai te
matar (eu não vou!)

Riff 2 

C#|------------------------------|
G#|-5555555-888888-333333-666666-|
E||-4444444-777777-222222-555555-|
B||-2222222-555555-000000-333333-|
F#|-2222222-555555-000000-333333-|
B||-2222222-555555-000000-333333-|

Riff 2

Eu cansei, (cansei)
Eu não consigo esperar você (você)
Eu paguei caro para te esquecer (esquecer)
De todos planos eu já desisti (WHOOAAHH!)
Deixei pra trás tudo que consegui

Na minha vida não vai mais entrar (entrar)
Na sua vida não vou mais passar (passar)
E se você tentar me esquecer (WHOOAAHH!)
Vai pagar caro por me conhecer

Riff 3 

C#|---------------------|
G#|---------------------|
E||---------------------|  4x
B||--2-2--2-2-----------|
F#|--2-2--2-2-----------|
B||--2-2--2-2-2-3-5-3-2-|

Riff 4 - A#,B,D# (no final so segura em B)

Não venha dizer (NÃO!) o que eu
fui pra você (NÃO!)
Pois eu não vou mudar (NÃO!) meu jeito de pensar (NÃO!)
Não venha querer (NÃO!)
tentar me convencer (NÃO!)

Pois não tenho mais tempo de te aguentar!

Solo : B , C# , E , B , C#

Riff 2 

Eu cansei, (cansei)
Eu não consigo esperar você (você)
Eu paguei caro para te esquecer (esquecer)
De todos planos eu já desisti (WHOOAAHH!)
Deixei pra trás tudo que consegui

Na minha vida não vai mais entrar (entrar)
Na sua vida não vou mais passar (passar)
E se você tentar me esquecer (WHOOAAHH!)
Vai pagar caro por me conhecer

Riff 5         Riff 6

C#|-----------|        C#|------------------------|
G#|-----------|        G#|------------------------|
E||-----------|  5x    E||------------------------|
B||-----------|        B||-2222333335555533332222-|    depois vouta pro Riff 5 
F#|-----------|        F#|------------------------|
B||-22-22-222-|        B||------------------------|

Riff 2

Eu cansei, (cansei)
Eu não consigo esperar você (você)
Eu paguei caro para te esquecer (esquecer)
De todos planos eu já desisti (WHOOAAHH!)
Deixei pra trás tudo que consegui

Na minha vida não vai mais entrar (entrar)
Na sua vida não vou mais passar (passar)
E se você tentar me esquecer (WHOOAAHH!)
Vai pagar caro por me conhecer

alguma reclamação é so pega e tira a musica de ouvido !!!!
  • Enviada por: Sem inscrição
  • Exibições: 924
  • Nº de acordes: 5