Gloria

Asas Fracas

Gloria

Compartilhar:

 

(Riff 1)
   F#    G   F#   E  D   C#  D   E
e | -----------------------------------
b | -----------------------------------
g | --11---12---11--(b9)--7---6---7---(b9)--
d | --x----x----x---x---x---x---x---x---
a | --(b9)---10---(b9)--7---5---4---5---7---
E | -----------------------------------
   3x   1x   3x   1x   3x  1x  1x  1x


[Riff 1]
Nenhuma mão pra crer 
O que me aconteceu ? 
[Riff 1]
Nenhuma reza pode me mudar 
Foi tudo por você? 
[Riff 1]
Porra nenhuma que a dor não vai chegar 
E agora o que fazer ? 
[Riff 1]
Pegue sua faca tira o cancer do lugar


(Riff 2)
e | --------------------------------------------------------
b | --10--12-12-12----10--12-12-12----10--12-12-12-12-12----
g | --11--11-11-11----11--11-11-11----11--11-11-11-11-11----
d | --------------------------------------------------------
a | --------------------------------------------------------
E | --------------------------------------------------------


(Riff 3)
e | ----------------
b | ----------------
g | ----------------
d | ----------------
a | --2^---0--------
E | ----------2-----


B
Se mesmo assim

Tivesse dito

Não teria impedido [Riff 3]


B
Que o céu tocasse 

Os seus pés [Riff 3]


B
E que junto do azul vem o blue [Riff 3]
B
Um mar de tinta preta viesse [Riff 3]

(Riff 1) e outra guitarra fica fazendo o riff 2

Nenhuma mão pra crer

(Riff 1)

Nenhuma reza pode me mudar

(Riff 1)

Porra nenhuma que a dor não vai chegar

(Riff 1)

Pegue sua faca tira o cancer do lugar


F#                   D
Peguei meus sonhos Desenhei no ar      
       A               E
Irei voar Pra te encontrar
F#                   D
Peguei meus sonhos Desenhei no ar      
       A               E
Irei voar Pra te encontrar

segura abafado em 
B


Depois do azul, a tristeza vai me contar

Que preciso sangrar, pra em ti eu chegar.

(guitarra limpa)
F#                   D
Peguei meus sonhos Desenhei no ar
       A               E
Irei voar Pra te encontra

(com distorção)
F#                   D
Peguei meus sonhos Desenhei no ar
       A              E
Irei voar Pra te encontra


F#         D
A cada segundo
              A    E             F#
Por toda lembrança    eu irei voar.
F#         D             A        E      F#
            e eu irei voar

(Riff 1)
Nenhuma mão pra crer
(Riff 1)
Nenhuma reza pode me mudar
(Riff 1)
Porra nenhuma que a dor não vai chegar
(Riff 1)
Pegue sua faca tira o cancer do lugar


Riff do final
e | -------------------
b | -------------------
g | --6----7--6--4-----
d | --x----x--x--x-----
a | --4----5--4--2-----
E | ------------------- 
  • Enviada por: Sem inscrição
  • Exibições: 644
  • Nº de acordes: 7