Intro: 
e|----------------------------------------------|
B|----------------------------------------------|
G|--------------6-6-6-6-(7)---------------------|
D|--------7-----7-7-7-7----7-7--7-6-6-6-7-6-4---|
A|-5--7\9---9-7-4-4-4-4-----------------------7-|
E|----------------------------------------------| x2

Verse: (clean)
e|----------------------------------------------|
B|----------------------------------------------|
G|--------------6-6-6-6-------------------------|
D|--------7-----7-7-7-7-4-4-7--7-----6-7-6-4----|
A|-5--7\9---9-7-4-4-4-4----------7-7---------7--|
E|---------------------------------------------7| x3

e|--------------------------------------------|
B|--------------------------------------------|
G|--------------6-6-6-6-----------------------|
D|--------7-----7-7-7-7-4-4-7--7-----6-7-6----|
A|-5--7\9---9-7-4-4-4-4----------7-7-------7--|
E|--------------------------------------------|

e|----------------------------------------------|
B|----------------------------------------------|
G|--------------6-6-6-6-------------------------|
D|--------7-----7-7-7-7-4-4-7--7-----6-7-6-4----|
A|-5--7\9---9-7-4-4-4-4----------7-7---------7--|
E|---------------------------------------------7| x3

e|--------------------------------------------|
B|--------------------------------------------|
G|--------------6-6-6-6-----------------------|
D|--------7-----7-7-7-7-4-4-7--7-----6-7-6----|
A|-5--7\9---9-7-4-4-4-4----------7-7-------7--|
E|--------------------------------------------|

Chorus: (listen to the song to find the rhythm)
e|-0------0------0------0------|
B|-3------2------0------0------|
G|-2------2------2------1------|
D|-0------2------4------2------|
A|-0------0------4------2------|
E|----------------------0------| x7

Post-Chorus:
e|-0-0--0-----0-0--0-----|
B|-3-3--2-----0-0--0-----|
G|-2-2--2-----2-2--1-----|
D|-0-0--2-----4-4--2-----|
A|-0-0--0-----4-4--2-----|
E|-----------------0-----|

Verse:
e|----------------------------------------------|
B|----------------------------------------------|
G|--------------6-6-6-6-------------------------|
D|--------7-----7-7-7-7-4-4-7--7-----6-7-6-4----|
A|-5--7\9---9-7-4-4-4-4----------7-7---------7--|
E|---------------------------------------------7| x3

e|--------------------------------------------|
B|--------------------------------------------|
G|--------------6-6-6-6-----------------------|
D|--------7-----7-7-7-7-4-4-7--7-----6-7-6----|
A|-5--7\9---9-7-4-4-4-4----------7-7-------7--|
E|--------------------------------------------|

Chorus:
e|-0------0------0------0------|
B|-3------2------0------0------|
G|-2------2------2------1------|
D|-0------2------4------2------|
A|-0------0------4------2------|
E|----------------------0------| x7

Post-Chorus:
e|-0-0--0-----0-0--0-----|
B|-3-3--2-----0-0--0-----|
G|-2-2--2-----2-2--1-----|
D|-0-0--2-----4-4--2-----|
A|-0-0--0-----4-4--2-----|
E|-----------------0-----|

Solo:
e|------------------------------------|
B|------------------------------------|
G|--------------(7)-------------------|
D|---7------7------7-7h9p6--6-7-6-----|
A|-5---5-7----7-9-----------------9-7-|
E|------------------------------------| x2

e|--------------------------------------|
B|--------------------------------------|
G|-7--7-7-7h9-6----(7)------------------|
D|--------------9-7---7-7h9-6-6-7-6-4---|
A|------------------------------------7-|
E|--------------------------------------|

e|------------------------------------|
B|------------------------------------|
G|--------------(7)-------------------|
D|---7------7------7-7h9p6--6-7-6-----|
A|-5---5-7----7-9-----------------9-7-|
E|------------------------------------|

Chorus: (solo plays in the background)
e|-0------0------0------0------|
B|-3------2------0------0------|
G|-2------2------2------1------|
D|-0------2------4------2------|
A|-0------0------4------2------|
E|----------------------0------| x8

Ending:
e|-0-0--0-----0-0--0~-----|
B|-3-3--2-----0-0--0~-----|
G|-2-2--2-----2-2--1~-----|
D|-0-0--2-----4-4--2~-----|
A|-0-0--0-----4-4--2~-----|
E|-----------------0~-----| :D



Enviada por Sem inscrição
Nº de acordes: 0