Foo Fighters

Stacked Actors

Foo Fighters

58 exibições
  • Violão
  • Guitarra
  • Teclado
  • Cavaquinho
  • Contra-baixo
  • Bateria
  • Gaita
  • Guitar Pro
Intro/Chorus
e||--------------------------------------------------------------------------||
B||--------------------------------------------------------------------------||
G||------------------------------------------------------<4>-<4>-------------||
D||------------------------------------------------------<4>-<4>-------------||
A||--0-0--3-5-5-3--3/10-10--3-5-5-3--3/-8-8--1/6-6-5-3-0---------0--6-6-5-3--||
A||--0-0--3-5-5-3--3/10-10--3-5-5-3--3/-8-8--1/6-6-5-3-0---------0--6-6-5-3--||


Verse
(Gtr. 1)
e||--------------------|------------------||
B||--1-1-1-1/3-3-1-1-1-|-1-1-1-4-4-3-1-1--||
G||--0-0-0-0/0-0-0-0-0-|-0-0-0-0-0-0-0-0--||
D||--2-2-2-2/4-4-2-2-2-|-2-2-2-5-5-4-2-2--||
A||--0-0-0-3/5-5-3-0-0-|-0-0-0-6-6-5-3-0--||
A||--------------------|------------------||
  (3x)                 (1x)

(Gtr. 2, w/delay)
e||--------------------------------||
B||--1===========================--||
G||--0===========================--||
D||--2===========================--||
A||--0===========================--||
A||--------------------------------||


Pre-Chorus (Gtr. 1, play verse faster)
e||----------------------------------------||
B||----------------------------------------||
G||----------------------------------------||
D||----------------------------------------||
A||----------------------------------------||
A||--0-------0-------0----0----0--0--0--0--||


Solo (After first verse)
e||---------------------------------------------------||
B||-------------8-7-8-7-5-----------------------------||
G||--7b8b7-5------------------7b8b7-5--------4b5b4b5--||
D||----------7------------5-7---------7--5-7----------||
A||---------------------------------------------------||
A||---------------------------------------------------||


Solo (*Vibrato is caused by bending the string up and down very quick)
e|---------------------------------------------------------------------|
B|---------------------------------------------------------------------|
G|---------------------------------------------------------------------|
D|---------------------------------------------------------------------|
A|---------------------------------------------------------------------|
A|--0---0-3-5-5-5p3--0---0-3-5-5-5p3--0---0-3-5-5-5p3--6-6-5-3-6-6-5-3-|

                             (See top)  *Vibrato~~~~~~~~~~~~~~
e|------------------------------------------------------------|
B|------------------------------------------------------------|
G|----------------------5---5---5-7-7b8b7-7-5-7-~~~~~~~~~~~~~-|
D|-5-5-5-5-5/4-4-4-4--7---7---7-------------------------------|
A|------------------------------------------------------------|
A|------------------------------------------------------------|

e|-------------------------------------------------|
B|-------------------------------------------------|
G|-----------------------------------5-----------5-|
D|-75-54-42-75-54-42-75-54-4---75-54-4-------------|
A|-------------------------------------------------|
A|-------------------------------------------------|

e|--------------------------------------------------------------------|
B|--------------------------------------------------------------------|
G|-----------------------5-----6-6-6-5/6-6-6-5/6-6-6-5/6-6-6-5/6-6-6--|
D|-75-54-42-75-54-4---4/5-------4/5-5-5-4/5-5-5-4/5-5-5-4/5-5-5-------|
A|--------------------------------------------------------------------|
A|--------------------------------------------------------------------|


Enviada por Sem inscrição
Nº de acordes: 0