• Violão
  • Guitarra
  • Teclado
  • Cavaquinho
  • Contra-baixo
  • Bateria
  • Gaita
  • Guitar Pro
Drop D tuning

|-------------------------------------------------|----------------------------|
|-------------------------------------------------|----------------------------|
|-------------------------------------------------|----------------------------|
|-------------------------------------------------|-----------4p0---7p0---12p0-|
|-5p0---5p0---5p0---5p0---5p0---5p0---5p0---5p0---|-5p0---7p0------------------|
|-----0-----0-----0-----0-----0-----0-----0-----0-|-----0---------0-----0------|
  Intro                                        x4

------------------------|
------------------------|
------------------------|
---11p0---14p0---12p0---|
------------------------|
-0------0------0------0-|
                     x1

|------------------------------------------------------|
|------------------------------------------------------|
|------------------------------------------------------|
|-------------4p0---7p0---12p0---11p0---14p0---12p0----|
|-4p0---7p0--------------------------------------------|
|-----0-----0-----0-----0------0------0------0------0--|
  Verse

|-----------------------------------------------------------------------------|
|-----------------------------------------------------------------------------|
|-----------------------------------------------------------------------------|
|-7p0---7p0---7p0---7p0---7p0---7p0---7p0---7p0---6p0---6p0---6p0---6p0---6p0-|
|-----------------------------------------------------------------------------|
|-----0-----0-----0-----0-----0-----0-----0-----0-----0-----0-----0-----0-----|
  Chorus?

---------------------------------------------------------------------------|
---------------------------------------------------------------------------|
---------------------------------------------------------------------------|
---6p0---6p0---6p0---9p0---7p0---5p0---4p0---5p0---7p0---9p0---7p0---7p0---|
---------------------------------------------------------------------------|
-0-----0-----0-----0-----0-----0-----0-----0-----0-----0-----0-----0-----0-|


-----------------------------------------------------------------------------|
-----------------------------------------------------------------------------|
-----------------------------------------------------------------------------|
-7p0---7p0---7p0---7p0---7p0---7p0---7p0---7p0---7p0---7p0---7p0---7p0---7p0-|
-----------------------------------------------------------------------------|
-----0-----0-----0-----0-----0-----0-----0-----0-----0-----0-----0-----0-----|


---------------------------------------------------------------------------|
---------------------------------------------------------------------------|
---------------------------------------------------------------------------|
---7p0---7p0---9p0---9p0---9p0---9p0---9p0---9p0---9p0---9p0---9p0---7p0---|
---------------------------------------------------------------------------|
-0-----0-----0-----0-----0-----0-----0-----0-----0-----0-----0-----0-----0-|


-----------------------------------------------------------------------------|
-----------------------------------------------------------------------------|
-----------------------------------------------------------------------------|
-5p0---4p0---5p0---7p0---9p0---7p0---7p0---7p0---7p0---7p0---7p0---7p0---7p0-|
-----------------------------------------------------------------------------|
-----0-----0-----0-----0-----0-----0-----0-----0-----0-----0-----0-----0-----|


---------|-----------------------------|------------------------------------|
---------|-----------------------------|------------------------------------|
---------|-----------------------------|------------------------------------|
---7p0---|-----------------------------|-11p0---11p0---11p0---11p0---11p0---|
---------|-----------------------------|------------------------------------|
-0-----0-|-----------------------------|------0------0------0------0------0-|
           Repeat Verse & Chorus parts

----------------------------------------------------------------------|-------|
----------------------------------------------------------------------|-------|
----------------------------------------------------------------------|-------|
-11p0---11p0---11p0---9p0---9p0---9p0---9p0---9p0---9p0---9p0---9p0---|-7p0---|
----------------------------------------------------------------------|-------|
------0------0------0-----0-----0-----0-----0-----0-----0-----0-----0-|-----0-|
                                                                   x3

-----------------------------------------------------------------------------|
-----------------------------------------------------------------------------|
-----------------------------------------------------------------------------|
-7p0---7p0---7p0---7p0---7p0---7p0---7p0---7p0---7p0---7p0---7p0---7p0---7p0-|
-----------------------------------------------------------------------------|
-----0-----0-----0-----0-----0-----0-----0-----0-----0-----0-----0-----0-----|


---------------|------------|-------------------------|-------------------|
---------------|------------|-------------------------|-------------------|
---------------|------------|-------------------------|-------------------|
---7p0---7p0---|------------|-7p0---7p0---7p0---7p0---|-9p0---9p0---9p0---|
---------------|------------|-------------------------|-------------------|
-0-----0-----0-|------------|-----0-----0-----0-----0-|-----0-----0-----0-|
                 Verse Riff                        x2

-------|-------------------------------------------------------------------|
-------|-------------------------------------------------------------------|
-------|-------------------------------------------------------------------|
-9p0---|-9p0---7p0---5p0---4p0---5p0---7p0---9p0---7p0---7p0---7p0---7p0---|
-------|-------------------------------------------------------------------|
-----0-|-----0-----0-----0-----0-----0-----0-----0-----0-----0-----0-----0-|
    x2

-------------------------------|------------|--------------------------|
-------------------------------|------------|--------------------------|
-------------------------------|------------|--------------------------|
-7p0---7p0---7p0---7p0---7p0---|------------|-10p0---9p0---7p0---9p0---|
-------------------------------|------------|--------------------------|
-----0-----0-----0-----0-----0-|------------|------0-----0-----0-----0-|
                                 Verse Riff                         x2

--------------------------------------------------|--------------------------|
--------------------------------------------------|--------------------------|
--------------------------------------------------|--------------------------|
-10p0---9p0---7p0---5p0---4p0---5p0---4p0---2p0---|-10p0---9p0---7p0---9p0---|
--------------------------------------------------|--------------------------|
------0-----0-----0-----0-----0-----0-----0-----0-|------0-----0-----0-----0-|
                                                                          x2

-------------------------------------------------------|
-------------------------------------------------------|
-------------------------------------------------------|
-10p0---9p0---7p0---5p0---4p0---2p0---------2p0---0----|
--------------------------------------3p0---------5----|
------0-----0-----0-----0-----0-----0-----0-----0------|


Enviada por tinho
Nº de acordes: 0