Foo Fighters

Iron And Stone

Foo Fighters

79 exibições
  • Violão
  • Guitarra
  • Teclado
  • Cavaquinho
  • Contra-baixo
  • Bateria
  • Gaita
  • Guitar Pro
Afinação normal ebgdaE

Intro
e|-------------------------------------------------------------|
B|-------------12-------------12-------------12-------------12-|
G|-11h12p11h12----11h12p11h12----11h12p11h12----11h12p11h12----|
D|-------------------------------------------------------------|
A|-------------------------------------------------------------|
E|-------------------------------------------------------------|

e|-------------------------------------------------------------|
B|-------------11-------------11-------------11-------------11-|
G|-11h12p11h12----11h12p11h12----11h12p11h12----11h12p11h12----|
D|-------------------------------------------------------------|
A|-------------------------------------------------------------|
E|-------------------------------------------------------------|

e|-------------------------------------------------------------|
B|-12-12-12-12-12-12-12-12-12-12-11-11-11-11-11-11-11-11-11-11-|
G|-12-12-12-12-12-12-12-12-12-12-11-11-11-11-11-11-11-11-11-11-|
D|-------------------------------------------------------------|
A|-------------------------------------------------------------|
E|-------------------------------------------------------------|


Verso
e||-----------------------------||
B||-----------------------------||
G||--7/9-x-12\11-----7/9-x-7\6--||
D||--7/9-x-12\11-----7/9-x-7\6--||
A||--5/7-x-10\9------5/7-x-5\4--||
E||--5/7---10\9------5/7---5\4--||


Chorus
e||----------------------------||
B||----------------------------||
G||--7/9-9-9----------5-7-7-7--||
D||--7/9-9-9--5-7-5---5-7-7-7--||
A||--5/7-7-7--5-7-5---3-5-5-5--||
E||-----------3-5-3------------||


Ponte
e||-----------------------------||
B||-----------------------------||
G||-----------------------------||
D||-----------------------------||
A||------------------5----------||
E||--0-0-0-3-5-5-5-5---7-6-5-3--||


Solo
e||----------------7-7-6-6-----------6h7p6h7-------6h7p6h7--||
B||--(7)-8--7h8p7h8-------6-6-6h7p6h7-------6h7p6h7---------||
G||---------------------------------------------------------||
A||---------------------------------------------------------||
E||---------------------------------------------------------||

Essa música é mto loca, uma das melhores do Foo Fighters apesar de não ser muito conhecida, é muuuiiitooo boa msm!!!


Enviada por Sem inscrição
Nº de acordes: 0