Foo Fighters

Ill Stick Around

Foo Fighters

49 exibições
  • Violão
  • Guitarra
  • Teclado
  • Cavaquinho
  • Contra-baixo
  • Bateria
  • Gaita
  • Guitar Pro
          Intro/Chorus:
          (Play the intro without singing)
          e:----------------------------|
          B:----------------------------|
          G:------------8---8-------5---|
          D:-5---5------8---8---8---5---|
          A:-5---5------6---6---8---3---|
          E:-3---3--------------6-------|
             I   don't    owe     you...
          
          
          
          Verse:
          e:----------------------------------------------------------------|
          B:----------------------------------------------------------------|
          G:---------------------------------5---5---5---5------------------|
          D:-5---5---5---5---3---3---3---3---5---5---5---5---5---5---5---5--|
          A:-5---5---5---5---3---3---3---3---3---3---3---3---5---5---5---5--|
          E:-3---3---3---3---1---1---1---1-------------------3---3---3---3--|
             I   thought I   knew what it took to bother   you
          
          e:-----------------------------------------------|
          B:-----------------------------------------------|
          G:-----------------5---5---5---5-----------------|
          D:-3---3---3---3---5---5---5---5---5---5---5---5-|
          A:-3---3---3---3---3---3---3---3---5---5---5---5-|
          E:-1---1---1---1-------------------3---3---3---3-|
             Every word I said was true.  And that you'll see
          
            
            Pre-Chorus
          e:------------------------------------------------------|
          B:------------------------------------------------------|
          G:----------------------------------5---5---5---5---5~~-|
          D:-8---8---8---8---5---5---5----5---5---5---5---5---5~~-|
          A:-8---8---8---8---5---5---5----5---3---3---3---3---3~~-|
          E:-6---6---6---6---3---3---3----3-----------------------|
             I'm taking     all of that and   more...
          
            Bridge:
          e:--------------------------------------------------------------------------|
          B:--------------------------------------------------------------------------|
          G:8-8-8-8-8-8-8-8--10-10-10-10-10-10-10-10-------------------7-7-7-7-7-7-7-7|
          D:8-8-8-8-8-8-8-8--10-10-10-10-10-10-10-10--5-5-5-5-5-5-5-5--7-7-7-7-7-7-7-7|
          A:6-6-6-6-6-6-6-6--8--8--8--8--8--8--8--8---5-5-5-5-5-5-5-5--5-5-5-5-5-5-5-5|
          E:------------------------------------------3-3-3-3-3-3-3-3-----------------|
            I'll stick around, I'll stick around...


Enviada por Sem inscrição
Nº de acordes: 0