Intro.   G(1)
e|--------------------|                      [G1 stands for the slow
B|--------------------|                      G, and G2 stands for the
G|--------------------|                      Verse as indicated.]
D|----0----0----0----0|
A|--2----2----2----2--|
E|--3----3----3----3--|

     G(2)     Am       F          G1
e|---------------------------------------------|
B|---------------------------------------------|
G|---------------------------------------------|
D|----0-------2----------3-----------0----0----|
A|---2-2------0---------3----------2----2------|
E|---3-----------------1-----------3----3------|
   I wish I were with you, I couldn't stay
   G2    Am        F        G1
   Every direction leads me away
   G2    Am           F        G1
   Pray for tomorrow, but for today

    F    Em     C
e|---1----0-------0----0------------------------------|
B|---1----0-------1----1------------------------------|
G|---2----0-------0----0------------------------------|
D|---3----2-------2----2------------------------------|
A|---3----2-----3----3--------------------------------|
E|-1-1--0-0-------------------------------------------|
   All I want is to be home
e|----------|
B|----------|
G|----------|
D|----0----0|
A|--2----2--|
E|--3----3--|

G2    Am              F        G1
Stand in the mirror, you look the same
G2    Am                     F             G1
(Just) looking for shelter, from the cold and the pain
G2    Am           F        G1
Someone to cover, safe from the rain

   F     Em      C (same pattern as before)
'n' All I want is to be home

(Strum softly, can do the same pattern as before)
G          Am        F        G
Echoes and silence, patience and grace
G         Am         F        G
All of these moments I'll never replace
G        Am         F        G
Fear of my heart, absence of faith

F     Em      C
All I want is to be home. ooh
(BRidge)
G2    Am        F        G1 (X3)

F     Em         G
All I want is to be home

e|--------------------|
B|--------------------|
G|--------------------|
D|----0----0----0----0|
A|--2----2----2----2--|
E|--3----3----3----3--|

G2         Am        F        G1
People I've loved, I have no regrets
G2        Am      F        G1
Some I remember, some I forget
G2          Am        F        G1
Some of them living, some of them dead

F     Em      C.
All I want is to be home.

Hope you enjoyed it.


Enviada por tinho
Nº de acordes: 7