Foo Fighters

Friend Of A Friend

Foo Fighters

141 exibições
Tabbed by Steve (groovy_steve@hotmail.com)

Main:
                   
e|-----------------------------|
B|--6-6--6--6-6---3-3--3--3-3--|
G|--0-0--0--0-0---0-0--0--0-0--|
D|--5-5-----5-5---2-2-----2-2--|
A|--6-6-----6-6-/-3-3-----3-3--|
E|-----------------------------|

Bridge:

e|-----------------------------|
B|--6-6--6--6-6--5-5---3--3-3--|
G|--0-0--0--0-0--0-0---0--0-0--|
D|--5-5-----5-5--4-4---2--2-2--|
A|--6-6-----6-6--5-5-/-3--3-3--|
E|-----------------------------|

Playing Order:

Main x5
Bridge x1
Main x3
Bridge x1
Main x3
Bridge	x1
Main x3
Bridge x1
Main x3
Bridge x3
Main x3
Bridge x1
Main x3
Bridge x6
End x1

End On:

e|-------|
B|---6---|
G|---0---|
D|---5---|
A|---6---|
E|-------|


Enviada por tinho
Nº de acordes: 0