Foo Fighters

Enough Space

Foo Fighters

88 exibições
  • Violão
  • Guitarra
  • Teclado
  • Cavaquinho
  • Contra-baixo
  • Bateria
  • Gaita
  • Guitar Pro
(Normal Tuning)


Intro                  Pre-chorus
e||--3----3----3----3-|-3-3-3-3-3-3-----5-------||
B||--3----3----3----3-|-3-3-3-3-3-3-3-5---5-----||
G||--0----0----0----0-|-0-0-0-0-0-0-------------||
D||-------------------|-------------------------||
A||-------------------|-------------------------||
E||-------------------|-------------------------||
                      (3x)
 

Chorus
e||--------------------||
B||--------------------||
G||------5-6-----------||
D||--5---5-6--6-7-7-7--||
A||--5---3-4--6-7-7-7--||
E||--3--------4-5-5-5--||


Verse (Bass)


Bridge
e||----------------|----------------------------------------------------------||
B||----------------|----------------------------------------------------------||
G||----------------|----------------------------------------------------------||
D||--4-4---4-x-x-x-|-8-8-8-8-10-10-10-8-8-8-8-10-10-10-8-8-8-8-10-8-10-11-11--||
A||--4-4---4-x-x-x-|----------------------------------------------------------||
E||--2-2-0-2-x-x-x-|----------------------------------------------------------||
  (4x)


Enviada por romeu
Nº de acordes: 0