Tuning: eBGDAE


Intro
E||--------------------||
B||--------------------||
G||-5-5-5-5--5-5-5-5-5-||
D||-7-7-7-7--7-7-7-7-7-||
A||-0-0-0-0--5-5-5-5-5-||
E||--------------------||


Pre-Chorus
  Gtr. 1
E||------------------------------||
B||------------------------------|| 
G||-----0-0------------0-0-------|| Play the 
D||-3-3------(4x)-----------(4x)-|| whole thing 
A||-3-3------------5-5-----------|| 2x
E||-1-1------------2-2-----------||
  Gtr. 2
E||-------------------||
B||-------------------||
G||---0---------0-----||
D||------5---------5--||
A||-0--------0--------||
E||-------------------||


Chorus
E||------------------------------||
B||------------------------------||
G||-------7-----7-----7-----7----||
D||-7-----7-----7-----7-----7----||
A||-7-----5-----5-----5-----5----||
E||-5-----------7-----------7----||



Enviada por Sem inscrição
Nº de acordes: 0