Foo Fighters

Damn You Damn Everyone

Foo Fighters

68 exibições
  • Violão
  • Guitarra
  • Teclado
  • Cavaquinho
  • Contra-baixo
  • Bateria
  • Gaita
  • Guitar Pro
(Normal Tuning) 
 
 
Verse/Chorus 
e|-----------------------------------------------------------------------------| 
B|-----------------------------------------------------------------------------| 
G|---------------------------------------5-5-5-5-5-5-5-5------4-4-4-4-4-4-4-4--| 
D|---------------------------------------3-3-3-3-3-3-3-3------2-2-2-2-2-2-2-2--| 
A|--7-7-7-7-7-7-7-7--5-5-5-5-5-5-5-5-------------------------------------------| 
E|--5-5-5-5-5-5-5-5--3-3-3-3-3-3-3-3-------------------------------------------| 
 
e|-----------------------------------| 
B|-----------------------------------| 
G|-----------------------------------| 
D|--7-7-7-7-7-7-7-7-7-7-7-7-7-7-7-7--| 
A|--5-5-5-5-5-5-5-5-5-5-5-5-5-5-5-5--| 
E|-----------------------------------| 
 
 
Bridge 
e|-------------------------------------------------------------------------------| 
B|-------------------------------------------------------------------------------| 
G|--5-5-5-5-5-5-5-5-------4-4-4-4-4-4-4-4----------------------------------------| 
D|--3-3-3-3-3-3-3-3-------2-2-2-2-2-2-2-2-------7-7-7-7-7-7-7-7-7-7-7-7-7-7-7-7--| 
A|--3-3-3-3-3-3-3-3-------2-2-2-2-2-2-2-2-------5-5-5-5-5-5-5-5-5-5-5-5-5-5-5-5--| 
E|-------------------------------------------------------------------------------| 
 
 
Verse w/Distortion (Guitar 2 comes in and double guitar 1 throughout) 
e|---------------------------------------------------------------------------------| 
B|---------------------------------------------------------------------------------| 
G|-------------------------------------------5-5-5-5-5-5-5-5------4-4-4-4-4-4-4-4--| 
D|--7-7-7-7-7-7-7-7--5-5-5-5-5-5-5-5---------3-3-3-3-3-3-3-3------2-2-2-2-2-2-2-2--| 
A|--7-7-7-7-7-7-7-7--5-5-5-5-5-5-5-5---------3-3-3-3-3-3-3-3------2-2-2-2-2-2-2-2--| 
E|--5-5-5-5-5-5-5-5--3-3-3-3-3-3-3-3-----------------------------------------------| 
 
   PM------| 
e|--------------------| 
B|--------------------| 
G|-7-7-7-7-7-7-7-7-7--| 
D|-7-7-7-7-7-7-7-7-7--| 
A|-5-5-5-5-0-0-5-0-5--| 
E|--------------------| 
 
     
 
CHORUS  
 
 
Bridge 2 w/distortion 
e|----------------------------| 
B|----------------------------| 
G|----------------------------| 
D|--4-------------------------| 
A|-------5-----3-3-3-3-3-3-3--| 
E|----------------------------| 
 
 
 
Interlude w/distortion  
 try one...                            running to it  running into it   
e|----------------------------------------------------------------| 
B|----------------------------------------------------------------| 
G|-------------------------------------5-5-5-5-5-5---8-8-8-8-8-8--| 
D|--5---7-7---5-5---7-7---5---7-7------3-3-3-3-3-3---6-6-6-6-6-6--| 
A|--3-5-5-5-7-3-3-5-5-5-7-3-5-5-5-7----3-3-3-3-3-3---6-6-6-6-6-6--| 
E|----3-----5-----3-----5---3-----5-------------------------------| 
 
 
Solo (other guitar plays verse) 
e|----------------------------------------------------------------------------| 
B|----------------------------------------------------------------------------| 
G|--6-6-4-9-11-5-4-2-4-2---5-4-2-0-4-2---6-6-4-9-11-5-4-2-4-2---5-4-2-0-4^-2--| 
D|-----------------------5------------------------------------5---------------| 
A|----------------------------------------------------------------------------| 
E|----------------------------------------------------------------------------| 
 
Solo (2nd Version) 
e|----------------------------------------------------------| 
B|----------------7-----------------------------------------| 
G|--6--6----------------------------------5-----------------| 
D|---------9--7------9---7--9--7-------------9--7--5--9--7--| 
A|----------------------------------------------------------| 
E|----------------------------------------------------------| 
 
 
BRIDGE 
 
 
CHORUS 
 
 
Outro 
e|----------------------| 
B|----------------------| 
G|----------------------| 
D|--4^------------------| 
A|-----5-3-3-3-3-3-3-3--| 
E|----------------------|


Enviada por Sem inscrição
Nº de acordes: 0