Foo Fighters

Come Back

Foo Fighters

102 exibições
key/legend: 
~ - hold note/vibrato 
s - slide up or down 
^ - hammer on/pull off 
b - bend 
*--/ 
--/-  means repeat last bar 
-/--  i used it for the acoustic bit 
/--* 
intro/verse 
e|--------------------------------------------------- 
B|---------------------------------------------------
G|--------------------------------------------------- 
D|-------------------------------------4s6----------- 
A|-11-11-11-11-11--9--9--9--9-9-9-9-9------7^6------- 
E|--9--9--9--0--0--0--0--0--7-7-7-0-0----------7-(6)-
                                                  | 
                                unsure about this note


prechorus: 
e|------  -------------------------- 
B|------  -------------------------- 2nd guitar plays
the 
G|------  -------------------------- A string part,
1st 
D|--7---  -------------------------- plays just A
chord 
A|--7---  ----7~---6~---4~---2~-----
E|--5---  -------------------------- 

bridge: 
1st guitar 
e|----------------------------------------------------------

B|----------------------------------------------------------

G|--13--11s10--8s6--8----6-----13--11s9--------------6---8--

D|--------------------6-----------------11s9--11s14--6-6-8--

A|--11---9s8---6s4--6----4-----11---9s7--------------4-6-6--

E|--------------------4------------------9s7---9s12----4----

i think the 3 chords at the end are a second guitar.
but if you are 
on your own like me, play the last octave note at the
7th fret of the A 
string, rather than at the 12th of the E string, it
makes the jump a lot 
smaller. 
 bridge: the other way to play it 
e|----------------------------------------------------------
B|----------------------------------------------------------

G|--13--11s10--8s6--8----6-----13--11s9--6s4--6s9--6---8----

D|--------------------6----------------------------6-6-8----

A|--11---9s8---6s4--6----4-----11---9s7--4s2--4s7--4-6-6----
E|--------------------4------------------------------4------

bridge: 2nd guitar 
e|----------------- 
B|-----------------   i'm not too sure about this. 
G|--6-----9-------- you'll have to figure the timing 
D|--6--6--9--9-----   out i dunno how to tab that. 
A|--4--6--7--9----- 
E|-----4-----7----- 

finish on A: 
e|-----      ---------------------- 
B|-----      ---------------------- 
G|-----      ---------------------- 
D|--7-- then ---------------------- 
A|--7--      --7~---6~---4~---2~--- 
E|--5--      ----------------------

Acoustic bit: this could take a while. i'll do both
guitars. 
G1 is basically the intro, and it doesn't really
stray. 
after a while he starts to strum more, but its the
same thing the whole time. 
G1 
e|-----------------------------------------------------------

B|-----------------------------------------------------------
G|-----------------------------------------------------------

D|-----------------------------------------------------------

A|-11-11--9--4-----------------------------------------------

E|--9--0--7--2-----------------------------------------------

2 
e|-----------|---------|----------------|----------------------

B|-----------|---------|----------------|----------------------
G|-----------|---------|----------8--6--|--------9^11-9--8--6--
D|---4s9^11--|-4s9^11--|-4s9^11------4--|-4s9^11-------------4-

A|-----------|---------|----------------|----------------------

E|-----------|---------|----------------|----------------------


e|------------------------|(repeat)|-------7-|-----------------------
B|---5---4--5--5s7--------|--*--/--|---7s9---|---5---4--5--5s7-------

G|-6---6------------8--6--|----/---|---------|-6---6------------8--6-

D|------------------------|---/----|---------|-----------------------
A|------------------------|--/--*--|---------|-----------------------
E|------------------------|--------|---------|-----------------------

e|---------------------------------|---------------------|

B|---------------------------------|---------------------|
electric guitar starts 
G|--8^9--8^9-9s11-9----------------|---s9-8^9-9^11-------|
in in the background 
D|--------------------9^11--9^8-9--|---------------9-11--|

A|---------------------------------|---------------------|

E|---------------------------------|---------------------|


e|------------------------|---------------------------------------|-

B|---5---4--5--5s7--------|--9-----12-11--------------------------|-

G|-6---6------------8--6--|--------------11--9--8^9-9s11-9-8^9----|-

D|------------------------|----11------------------------------9--|-

A|------------------------|---------------------------------------|-

E|------------------------|---------------------------------------|-

e|------------------------|--------|-------------------9---

B|---5---4--5--5s7--------|--*--/--|-----------9--12-9---9-

G|-6---6------------8--6--|----/---|--8-9-9s11-------------

D|------------------------|---/----|-----------------------

A|------------------------|--/--*--|-----------------------

E|------------------------|--------|-----------------------


full electrics now 
G1 for 8 bars         G2 comes in after 4 bars with: 
e|---------------  ------------------------ 
B|---------------  ---9-9-9-9-9-9-9-9-9-9-- 
G|--6--4---------  ------------------------  for 4
bars 
D|--6--4--7--4---  ---6-6-6-6-6-6-6-6-6-6-- 
A|--4--2--7--4---  ------------------------ 
E|--------5--2---  ------------------------

then is goes like this. i'm not certain here, but it
sounds close. 
its just hte chorus riff whit extra guitar 2. 
G1 
e|--------------------------------------------------------------------
B|--------------------------------------------------------------------
G|--6-6-6-6-----------------------------------------------------------

D|--6-6-6-6--7-7-7--4-4-4-4--6-6-6--2-2-2-2--4-4-4--7-7-7-7--9-9-9----

A|--4-4-4-4--7-7-7--4-4-4-4--6-6-6--2-2-2-2--4-4-4--7-7-7-7--9-9-9----

E|-----------5-5-5--2-2-2-2--4-4-4--0-0-0-0--2-2-2--5-5-5-5--7-7-7----


e|------------------------------------------------------------------
B|--9-9-9-9-9-9-9-9-9-9-9-9-----------------------------------------
G|---------------------------5-5-5--6-6-6-6--9-9-9--6-6-6-6--8-8-8--

D|--6-6-6-6-6-6-6-6-6-6-6-6-----------------------------------------

A|---------------------------3-3-3--4-4-4-4--7-7-7--4-4-4-4--6-6-6--

E|------------------------------------------------------------------


ending riff: 
e|---------------------------------- 
B|---------------------------------- 
G|---------------------------------- 
D|---11-11-11-11-11-11-11-11-11----- 
A|---11-11-11-11-11-11-11-11-11----- 
E|----9--9--0--9--0--9--0--9--9-----	


Enviada por amanda-leal
Nº de acordes: 1