Foo Fighters

Cheer Up Boys, Your Makeup Is Running

Foo Fighters

39 exibições
  • Violão
  • Guitarra
  • Teclado
  • Cavaquinho
  • Contra-baixo
  • Bateria
  • Gaita
  • Guitar Pro
CHORDS: (I never get this stuff to line up in tab... on a mac)
Asu2? F#    A     E      Eb/E  D
|-X-||-X-||-X-||-X-||-X-||-X-||
|-5-||-X-||-X-||-X-||-X-||-X-||
|-4-||-X-||-2-||-9-||-9-||-5-||
|-2-||-4-||-2-||-9-||-9-||-5-||
|-0-||-4-||-0-||-7-||-6-||-3-||
|-X-||-2-||-X-||-X-||-X-||-X-||

INTRO
Riff #1 (Guitar 1)
0:00
|-------------------|
|-5-555-5-555-------|
|-4-444-4-444-------|
|-2-222-2-222-------|
|-0-000-0-000-| x16-|
|-------------------|

Riff #2 (Guitar 2)
0:06
|--------------|
|--------------|
|--------------|
|--------0-2---|
|--0-2-3----0--| x2
|-3---0--------|

Riff #3 (Guitar 2)
0:13
|----------------------|
|-------------5-----5--|
|-------------4-----4--|
|--------0-2--2-----2--|
|--0-2-3----0----------| x3
|-3---0---------0-0----|

Riff #4 (Guitar 2)
0:23
|------------|
|------------|
|--------2-2-|
|----4-4-2-2-|
|----4-4-0-0-|
|-00-2-2-----|

VERSE 1
(Guitar 1)
0:25
|------------------------------------------|
|----------------------5----55-------------|
|---9---99---9---99---4----44-7-7-7-7------|
|---9---99---9---99---2----22-7-7-7-7------|
|-7-7-7-77-6-6-6-66-0-0-0-00--5-5-5-5------| x4
|------------------------------------------|

CHORUS:
(Guitar 1):  *use up strokes
0:54
|-7-7-7-7-7-7-7-7------|
|-5-5-5-5-5-5-5-5------|
|-4-4-4-4-4-4-4-4------|
|----------------------|
|----------------------| x3
|----------------------|

(Guitar 2) = Riff #3 x3 (can end in A if prefered)

CHORUS Pt. 2:
(Guitar 1)
1:02
|---------------------0--------------------0-----|
|---------------------0---5-5---3-3--------0-----|
|-----------2-2---1-1-----4-4---2-2---1-1--------|
|-----4-4---2-2---2-2-----2-2---0-0---2-2--------|
|-----4-4---0-0---2-2---0-----0-------2-2--------|
|-0-0-2-2-0-----0-0-0---------------0-0-0--------|
cont.
|---------------------0------------------|
|---------------------0---3-3---5-5------|
|-----------2-2---1-1-----2-2---4-4------|
|-----4-4---2-2---2-2-----0-0---2-2------|
|-----4-4---0-0---2-2---0-----0----------|
|-0-0-2-2-0-----0-0-0--------------------|

(Guitar 2) can just hold the same Power Chords

VERSE 2 Guitar 1 = (Same as Verse 1)
Guitar 2 (in backround)
|-------------------|
|-------------------|
|-9-9/13-6-6/11-----|
|-X-X/XX-X-X/X------|
|-7-7/11-4-4/9------| x4
|-------------------|

CHORUS 2 (Same for both Guitars)

BRIDGE:
(Guitar 1) w/tremolo & phase ***2nd time w/distortion and more rythm***
2:06
|-----------------------|
|----------------2------|
|-1-2-4-6-4-2-1-2-1-----|
|-2-4-6-7-2-4-2-2-2-----|
|-2-4-6-7-4-4-2-0-2-----|
|-0-0-0-0-0-0-0---0-----|

CHORUS Pt. 2 (Both Guitars)


Enviada por tinho
Nº de acordes: 5