Foo Fighters

Burn Away

Foo Fighters

86 exibições
esta musica e afinada em D:

Intro: (X2)
e|---------------x-----------------------------|
B|---------------3-----------------------------|
G|---------------2-----------------------------|
D|77-5-9-7-579---0-----------------------------|
A|77-5-9-7-579---0-----------------------------|
D|77-5-9-7-579---0-----------------------------|

RIFF A:
e|---------------------------------------------|
B|---------------------------------------------|
G|---------------------------------------------|
D|77-5-9-7-579-200-----------------------------|
A|77-5-9-7-579-200-----------------------------|
D|77-5-9-7-579-200-----------------------------|

e|---------------------------------------------|
B|---------------------------------------------|
G|--(7)----------------------------------------|
D|77-7-9-7-579-200-----------------------------|
A|77-5-9-7-579-200-----------------------------|
D|77-x-9-7-579-200-----------------------------|



VERSE: ("I have spent a lifetime...")(palm-muted)
e|---------------------------------------------|
B|---------------------------------------------|
G|---------------------------------------------|
D|77-5555555555555555--------------------------|
A|77-5555555555555555--------------------------|
D|77-5555555555555555--------------------------|

e|---------------------------------------------|
B|---------------------------------------------|
G|---7777777777777777--------------------------|
D|77-7777777777777777--------------------------|
A|77-5555555555555555--------------------------|
D|77-xxxxxxxxxxxxxxxx--------------------------|

e|---------------------------------------------|
B|---------------------------------------------|
G|---------------------------------------------|
D|77-5555555555555555--------------------------|
A|77-5555555555555555--------------------------|
D|77-5555555555555555--------------------------|

e|---------------------------------------------|
B|---------------------------------------------|
G|---7777777777777777--------------------------|
D|77-7777777777777777--------------------------|
A|77-5555555555555555--------------------------|
D|77-xxxxxxxxxxxxxxxx--------------------------|

e|---------------------------------------------|
B|---------------------------------------------|
G|---------------------------------------------|
D|77-5555555555555555--------------------------|
A|77-5555555555555555--------------------------|
D|77-5555555555555555--------------------------|

e|---------------------------------------------|
B|---------------------------------------------|
G|---7777777777777777--------------------------|
D|77-7777777777777777--------------------------|
A|77-5555555555555555--------------------------|
D|77-xxxxxxxxxxxxxxxx--------------------------|

e|---------------------------------------------|
B|---------------------------------------------|
G|---------------------------------------------|
D|77-5555555555555555--------------------------|
A|77-5555555555555555--------------------------|
D|77-5555555555555555--------------------------|

e|---------------------------------------------|
B|---------------------------------------------|
G|--(7)----------------------------------------|
D|77-7-9-7-579-200-----------------------------|
A|77-5-9-7-579-200-----------------------------|
D|77-x-9-7-579-200-----------------------------|


CHORUS: ("We'll burn away, burn away my bride...")
e|---------------------------------------------|
B|---------------------------------------------|
G|---------------------------------------------|
D|5555559-4444447-2222227-000000-04---------|
A|5555559-4444447-2222227-000000-04---------|
D|5555559-4444447-2222227-000000-04---------|

e|---------------------------------------------|
B|---------------------------------------------|
G|---------------------------------------------|
D|5555559-4444447-2222227-000000-04---------|
A|5555559-4444447-2222227-000000-04---------|
D|5555559-4444447-2222227-000000-04---------|


e|---------------------------------------------|
B|---------------------------------------------|
G|---------------------------------------------|
D|5555559-4444447-2222227-000000-04---------|
A|5555559-4444447-2222227-000000-04---------|
D|5555559-4444447-2222227-000000-04---------|

e|---------------------------------------------|
B|---------------------------------------------|
G|---------------------------------------------|
D|5555559-4444447-2222227-000000-04---------|
A|5555559-4444447-2222227-000000-04---------|
D|5555559-4444447-2222227-000000-04---------|


BRIDGE:("Breathe for me from now on...")
e|---------------------------------------------|
B|---------------------------------------------|
G|--------7777---------------------------------|
D|5555777777777777-----------------------------|
A|5555777755555555-----------------------------|
D|55557777xxxx5555-----------------------------|

e|---------------------------------------------|
B|---------------------------------------------|
G|--------7777---------------------------------|
D|5555777777777777-----------------------------|
A|5555777755555555-----------------------------|
D|55557777xxxx5555-----------------------------|

e|---------------------------------------------|
B|---------------------------------------------|
G|---------------------------------------------|
D|555577779999 10 10 10 10 55552224------------|
A|555577779999 10 10 10 10 55552224------------|
D|555577779999 10 10 10 10 55552224------------|

(RIFF A)
e|---------------------------------------------|
B|---------------------------------------------|
G|--------------------(7)----------------------|
D|77-5-9-7-579-200--77-7-9-7-579-200-----------|
A|77-5-9-7-579-200--77-5-9-7-579-200-----------|
D|77-5-9-7-579-200--77-x-9-7-579-200-----------|


(back to VERSE+CHORUS)

BRIDGE 2:("Burn on, burn on...")
e|---------------------------------------------|
B|---------------------------------------------|
G|---------------------------------------------|
D|999999997777777755555555---------------------|
A|999999997777777755555555---------------------|
D|999999997777777755555555---------------------|

e|---------------------------------------------|
B|---------------------------------------------|
G|---------------------------------------------|
D|999999997777777755555555---------------------|
A|999999997777777755555555---------------------|
D|999999997777777755555555---------------------|

e|---------------------------------------------|
B|---------------------------------------------|
G|---------------------------------------------|
D|999999997777777755555555--77-5-9-7-579-------|
A|999999997777777755555555--77-5-9-7-579-------|
D|999999997777777755555555--77-5-9-7-579-------|

e|---------------------------------------------|
B|---------------------------------------------|
G|---------------------------------------------|
D|77-5-9-7-579---------------------------------|
A|77-5-9-7-579---------------------------------|
D|77-5-9-7-579---------------------------------|

RIFF A: ("I'll never burn again...")
e|---------------------------------------------|
B|---------------------------------------------|
G|---------------------------------------------|
D|77-5-9-7-579-200-----------------------------|
A|77-5-9-7-579-200-----------------------------|
D|77-5-9-7-579-200-----------------------------|

e|---------------------------------------------|
B|---------------------------------------------|
G|--(7)----------------------------------------|
D|77-7-9-7-579-200-----------------------------|
A|77-5-9-7-579-200-----------------------------|
D|77-x-9-7-579-200-----------------------------|


END:

e|---------------------------------------------|
B|---------------------------------------------|
G|7-5----5-7-----------------------------------|
D|7-5----5-7-----------------------------------|
A|7-5----5-5-----------------------------------|
D|7-5----5-0-----------------------------------|




Enviada por amanda-leal
Nº de acordes: 1