Foo Fighters

Ballad Of Beaconsfield Miners

Foo Fighters

54 exibições
  • Violão
  • Guitarra
  • Teclado
  • Cavaquinho
  • Contra-baixo
  • Bateria
  • Gaita
  • Guitar Pro
Intro

  Guitar 1

e|-----------------------------|-----------------------------|
B|--------------------0--------|--------------------0--------|
G|--------0-----0-----0-----0--|--------0-----0-----0-----0--|
D|--0h3h5----5-----5-----5-----|--0h3h5----5-----5-----5-----|
A|-----------------------------|-----------------------------|
E|-----------------------------|-----------------------------|

e|-----------------------------|-----------------------------|
B|--------------------0--------|--------------------0--------|
G|--------0-----0-----0-----0--|--------0-----0-----0-----0--|
D|--0h3h5----5-----5-----5-----|--0h3h5----5-----5-----5-----|
A|-----------------------------|-----------------------------|
D|-----------------------------|-----------------------------|


Riff 1

  Guitar 1

e|----------------------------|----------------------------|
B|--------------------0-------|--------------------0-------|
G|--------0-----0-----0----0--|--------0-----0-----0----0--|
D|--0h3h5----5-----5-----5----|--0h3h5----5-----5-----5----|
A|----------------------------|----------------------------|
E|----------------------------|----------------------------|
|
| Guitar 2
|
e|----------------------------|----------------------------|
B|-----------------------0----|-----------------------0----|
G|--------0--------0----------|--------0--------0----------|
D|--0h3h5---5--3h5---3h5------|--0h3h5---5--3h5---3h5------|
A|----------------------------|----------------------------|
D|----------------------------|----------------------------|

  Guitar 1

e|----------------------------|----------------------------|
B|--------------------0-------|----------------------------|
G|--------0-----0-----0----0--|--------------0-----0----0--|
D|--0h3h5----3-----3-----3----|--------0-------------------|
A|----------------------------|--0h3h5---3-----3-----3-----|
E|----------------------------|----------------------------|
|
| Guitar 2
|
e|----------------------------|----------------------------|
B|----------------------------|----------------------------|
G|--------0--------------2----|----------------------------|
D|--0h3h5---3--3h5-3-3h5------|--------0--------------2----|
A|----------------------------|--0h3h5---3--3h5-3-3h5------|
D|----------------------------|----------------------------|

Riff 2


Guitar 1 & 2

e|----------------------------|----------------------------|
B|----------------------------|----------------------------|
G|--------0------------0------|--------0------------0------|
D|--3h4h5---5----3h4h5---5----|--3h4h5---5----3h4h5---5----|
A|----------------------------|----------------------------|
E|----------------------------|----------------------------|

Riff 3

  Guitar1

e|-----------------------------------|------------------------------|
B|-----------------------------------|------------------------------|
G|--------0-------0-------0-------0--|---------0-----0-----0-----0--|
D|--0h3h5---0h3h5---0h3h5---0h3h5----|--0h3h5-----5-----5-----5-----|
A|-----------------------------------|------------------------------|
E|-----------------------------------|------------------------------|
|
| Guitar 2
|                                                +      +      +
e|-----------------------------------|------------------------------|
B|-----------------------------------|------------------------------|
G|--------0-------0-------0-------0--|---------0--------------------|
D|-----------------------------------|--0h3h5----12----12-----12----|
A|--------------------------0h3h5----|------------------------------|
D|--0h3h5---0h3h5---0h3h5------------|------------------------------|


Riff 4

  Guitar 1

e|----------------------------|-----------------------------|
B|--------------------0-------|--------------------0--------|
G|--------0-----0-----0-----0-|--------0-----0-----0-----0--|
D|--0h3h5----5-----5-----5----|--0h3h5----5-----5-----5-----|
A|----------------------------|-----------------------------|
E|----------------------------|-----------------------------|
|
| Guitar 2
|
e|----------------------------|----------------------------|
B|----------------------------|----------------------------|
G|--------0-------4-\-3-/-4---|--------0-------4-\-3---0---|
D|--0h3h5---5-----5-\-4-/-5---|--0h3h5---5-----5-\-4-/-5---|
A|----------------------------|----------------------------|
D|----------------------------|----------------------------|



Enviada por tinho
Nº de acordes: 0