Foo Fighters

Arlandria

Foo Fighters

152 exibições
Intro: 
E|-----------------------------------------------------------------------|
B|-----------------------------------------------------------------------|
G|-----------------------------------------------------------------------|
D|------6-4-6-----------6-4-------------6-4-6-----------6-4-6------------|
A|--4-7-------4/----4-7-----7-4-----4-7-------/4----4-7-------7b---------|
E|-----------------------------------------------------------------------|

(0:11)

Verso 1:
E|-------------------------------|
B|-------------------------------|
G|--444--44444--444--33333-------|
D|--666--22222--222--44444-------|
A|--444--00000--222--44444-------|
E|--------------000--------------|
    ...  .....  ...  .....

(0:40)

(Guitarra 1)
E|------4--------0---------0---------0-----------|
B|----4--4-----0---0-----4---0-----4---4---------|
G|--6--------2---------4---------1---------------|
D|-----------------------------------------------|
A|-----------------------------------------------|
E|-----------------------------------------------|

(Guitarra 2)
E|----------------------|
B|-------------9--------|
G|-------12b------------|
D|----------------------|
A|----------------------|
E|----------------------|

(0:48)

Refrão:
E|-------------------------------------------------------------------------------------------------|
B|-------------------------------------------------------------------------------------------------|
G|--66666666----------------------4444------------66666666----------------------4444---555---------|
D|--66666666--77777777--22222222--4444---444------66666666--77777777--22222222--4444---555---------|
A|--44444444--77777777--22222222--2222---444------44444444--77777777--22222222--2222---333---------|
E|------------55555555--00000000---------222----------------55555555--00000000---------------------|

(1:05)
E|-----------------------------------------------------------|
B|-----------------------------------------------------------|
G|--66-66-6--------------------------------------------------|   (2x)
D|--66-66-6--44-44-44/6/77777--9999--------------------------|
A|--44-44-4--44-44-44/6/77777--9999-10101010-----------------|
E|-----------22-22-22/4/55555--7777-8-8-8-8------------------|

(1:21)
E|---------------------------|
B|--00000000-----------------|
G|--11111111--333------------|   (2x)
D|------------444------------|
A|---------------------------|
E|---------------------------|

(1:29)

Verso 2:

(Guitarra 1)
E|--------------0---------------0----------------------|
B|------0---0-----0-----0-----0---0--------------------|
G|----1-------1-------1-----3--------------------------|   (4x)
D|-----------------------------------------------------|
A|--4-----0--------------------------------------------|
E|------------------0-----2----------------------------|

(1:45)

(Guitarra 2)
E|-----------------------------------------------|
B|-----------------------------------------------|
G|----4-----4---4-----4----3---3-----------------|   (5x)
D|-----------------------------------------------|
A|--4---4-0---0---0------------------------------|
E|------------------0--0-2---2-------------------|

(1:58)
E|--------------9-------|
B|---------12b----------|
G|----------------------|
D|----------------------|
A|----------------------|
E|----------------------|

(2:06)

Refrão 2:
E|-------------------------------------------------------------------------------------------------|
B|-------------------------------------------------------------------------------------------------|
G|--66666666----------------------4444------------66666666----------------------4444---555---------|
D|--66666666--77777777--22222222--4444---444------66666666--77777777--22222222--4444---555---------|
A|--44444444--77777777--22222222--2222---444------44444444--77777777--22222222--2222---333---------|
E|------------55555555--00000000---------222----------------55555555--00000000---------------------|

(2:22)
E|-----------------------------------------------------------|
B|-----------------------------------------------------------|
G|--66-66-6--------------------------------------------------|   (2x)
D|--66-66-6--44-44-44/6/77-77-7--9999-10101010---------------|
A|--44-44-4--44-44-44/6/77-77-7--9999-10101010---------------|
E|-----------22-22-22/4/55-55-7--7777-8-8-8-8----------------|

(2:39)

Ponte:
E|------------------------------------------------------------------------------------------------|
B|------------------------------------------------------------------------------------------------|
G|--66-66-66----------------------4444----------------66-66-66----------------------4444--5555----|
D|--66-66-66--77-77-77--22-22-22--4444--444-----------66-66-66--77-77-77--22-22-22--4444--5555----|
A|--44-44-44--77-77-77--22-22-22--2222--444-----------44-44-44--77-77-77--22-22-22--2222--3333----|
E|------------55-55-55--00-00-00--------222---------------------55-55-55--00-00-00----------------|

(2:55)

Outro:
E|-------------------------------|
B|-------------------------------|
G|--444--44444--444--33333-------|   (10x)
D|--666--22222--222--44444-------|
A|--444--00000--222--44444-------|
E|--------------000--------------|
    ...  .....  ...  .....

(3:20)
E|----------------------|
B|-------------9--------|
G|-------12b------------|
D|----------------------|
A|----------------------|
E|----------------------|

(3:29)
E|--------------9-------|
B|---------12b----------|
G|----------------------|
D|----------------------|
A|----------------------|
E|----------------------|

(3:37)
E|-------------------------------------------------------------------------------------------------|
B|-------------------------------------------------------------------------------------------------|
G|--66666666----------------------4444------------66666666----------------------4444---555---------|
D|--66666666--77777777--22222222--4444---444------66666666--77777777--22222222--4444---555---------|
A|--44444444--77777777--22222222--2222---444------44444444--77777777--22222222--2222---333---------|
E|------------55555555--00000000---------222----------------55555555--00000000---------------------|

(3:53)
E|-----------------------------------------------------------|
B|-----------------------------------------------------------|
G|--66-66-6--------------------------------------------------|
D|--66-66-6--44-44-44/6/77-77-7--9999-10101010---------------|
A|--44-44-4--44-44-44/6/77-77-7--9999-10101010---------------|
E|-----------22-22-22/4/55-55-7--7777-8-8-8-8----------------|

(4:10)
E|------------------------------------------------------------|
B|------------------------------------------------------------|
G|------------------------------------------------------------|
D|------6-4-6------6-4-----------6-4--------------------------|   (2x)
A|--4-7--------4-7------7-4--4-7-----7-4---9999-10101010------|
E|-----------------------------------------7777-8-8-8-8-------|


Enviada por Sem inscrição
Nº de acordes: 0