Faith no More
Tom: G#

G#                  Cm   
You know it sounds funny
                 A#m            D#
But I just can't stand the pain
G#        Cm               A#m     D#
Girl I'm leavin' you tomorrow
G#        Cm
Seems to me, girl
              A#m       D#    
You know I've done all I can
G#          Cm                A#m          D#
You see, I beg, stole and I borrowed, yeah


CHORUS:
            G#     Cm     A#m
It's why I'm easy
    D#7              G#      Cm     A#m     D#7
I'm easy like Sunday morning
             G#     Cm     A#m
It's why I'm easy 
 D#7              F#   C#   D#  G#  
Easy like Sunday mo o o o o rning


           F#    C#  D#m
I wanna be high, so high
           F#                        C#     D#m
I wanna be free to know the things I do are right
        C#  F#
I wanna be free
C#   D#m
Just me
      B    F#     B    C#
Oh baby


Solo:
E-------------------------|------------------------------
B-------------------------|------------------------------
G------------13----(18)//-|------------------------------
D-------------------------|------------------------------
A--13br-------------------|--13br------------------------
E--------16---------------|--------16--16-----13\\-------

E--------------------------------------------------------
B------------16------------------------------------------
G----------------15--13----------------------------------
D------------------------16--15--13^^--13-15-13----------
A--13br-----------------------------------------15---15\/\/
E---------16---------------------------------------------

E-------------------------|------------------------------
B-------------------------|------------------------------
G------------13----(18)//-|------------------------------
D-------------------------|------------------------------
A--13br-------------------|--13br------------------------
E--------16---------------|--------16--16-----13\\-------

E--------------------------------------------------
B------------16------16----------------------------
G----------------15------13b-15-15-13h15p13--------
D--------------------------------------------16----
A--13br--------------------------------------------
E---------16---------------------------------------

E-----------------------------12/13--11^^-----------
B---------------------------------------------------
G---------------------------------------------------
D--15--15--------15--13^^---------------------------
A---------------------------------------------------
E---------------------------------------------------


BACKING IN CHORUS:
E|----------------------|
B|----------------------|
G|----------------------|
D|--6--5--1--3----------|
A|----------------------|
E|----------------------|
  • Enviada por: by_bruno
  • Exibições: 344
  • Nº de acordes: 9