Evans Blue

Cold (But I'm Still Here)

Evans Blue

32 exibições
 Drop D


intro/verse

   e ----------------------------------------------------|
   b ----------------------------------------------------|
   g ----------------------------------------------------|
   d ----------------------------------------------------|
   a -- 4h6--6h7--7h9-13h12--7----4h6--6h7--7h9-13h12-5--|
   d --0----0----0---------------0----0----0-------------|

   e ----------------------------------------------------|
   d ----------------------------------------------------|
   g ------------------------------------0----------0----|
   d ------------------------------7---7--7---5---5---5--|
   a --4h6--6h7--7h9-13h12---7---5---5------5---5--------|
   d -0----0----0----------------------------------------|




chorus
  e -----------------------------------------------------------------------|
  b -----------------------------------------------------------------------|
  g -----------------------------------------------------------------------|
  d ---12/16\12----10/12---8---5----12/16\12-----10/12----8----5---3/5-----|
  a ---12/16\12----10/12---8---5----12/16\12-----10/12----8----5---3/5-----|
  d ---12/16\12----10/12---8---5----12/16\12-----10/12----8----5---3/5-----|


bridge

  e ------------------------------------|
  b ------------------------------------|
  g ------------------------------------|
  d -8-8-8-0-0-0-12-12-12-0-0-0-8-8-0-0-|       x4
  a -8-8-8-0-0-0-12-12-12-0-0-0-8-8-0-0-|
  d -8-8-8-0-0-0-12-12-12-0-0-0-8-8-0-0-| 


  e -----------------------------------------------------------------------|
  b -----------------------------------------------------------------------|
  g -----------------------------------------------------------------------|
  d --8-----12-----8----5----8------8------12------8--------5--7--8--3--5--|
  a --8-----12-----8----5----8------8------12------8--------5--7--8--3--5--|
  d --8-----12-----8----5----8------8------12------8--------5--7--8--3--5--|


ending
  e -----------------------------------------------------------------------|
  b -----------------------------------------------------------------------|
  g -----------------------------------------------------------------------|
  d -12/16\12---10/12-----8---5-----12/16\12-----10/12----8----5---3/5-----|
  a -12/16\12---10/12-----8---5-----12/16\12-----10/12----8----5---3/5-----|
  d -12/16\12---10/12-----8---5-----12/16\12-----10/12----8----5---3/5-----|

  e -----------------------------------------------------------------------|
  b -----------------------------------------------------------------------|
  g -----------------------------------------------------------------------|
  d -12/16\12---10/12-----8---5-----12/16\12-----10/12----8----5---3/5---0-|
  a -12/16\12---10/12-----8---5-----12/16\12-----10/12----8----5---3/5---0-|
  d -12/16\12---10/12-----8---5-----12/16\12-----10/12----8----5---3/5---0-|


intro
verse
chorus  x2
verse
bridge
chorus  x2
ending



Enviada por Sem inscrição
Nº de acordes: 1