Deftones

Diamond Eyes

Deftones

Compartilhar:

  • Violão
  • Guitarra
  • Teclado
  • Cavaquinho
  • Contra-baixo
  • Bateria
  • Gaita
  • Guitar Pro
Tempo = 77
Tuning: Drop Bb ( Bb , F , Bb , Eb , G , C )/( A# , F , A# , D# , G , C )

Originally played on an 7 string guitar, this is how you can play it on a 6 string.


Tabbed for Guitar Pro by Katie Jackson
Transcribed by RedXile for everyone who doesn't have Guitar Pro


Intro/Verse 1 


|----------------------------------------|----------------------------------------|
|----------------------------------------|----------------------------------------|
|----------------------------------------|----------------------------------------|
|--1-----0--0--------1-----0--0----------|--1-----0--0--------1-----1-----1-------|
|--1-----0--0--------1-----0--0----------|--1-----0--0--------1-----1-----1-------|
|--1-----0--0--------1-----0--0----------|--1-----0--0--------1-----1-----1-------|
         .  .              .  .                   .  .
|----------------------------------------|----------------------------------------|
|----------------------------------------|----------------------------------------|
|----------------------------------------|----------------------------------------|
|--1-----0--0--------1-----0--0----------|--1-----0--0--------1-----1-----1-------|
|--1-----0--0--------1-----0--0----------|--1-----0--0--------1-----1-----1-------|
|--1-----0--0--------1-----0--0----------|--1-----0--0--------1-----1-----1-------|
         .  .              .  .                   .  .

|----------------------------------------|----------------------------------------|
|----------------------------------------|----------------------------------------|
|----------------------------------------|----------------------------------------|
|--1-----0--0--------1-----0--0----------|--1-----0--0--------1-----1-----1-------|
|--1-----0--0--------1-----0--0----------|--1-----0--0--------1-----1-----1-------|
|--1-----0--0--------1-----0--0----------|--1-----0--0--------1-----1-----1-------|
         .  .              .  .                   .  .

|----------------------------------------|----------------------------------------|
|----------------------------------------|----------------------------------------|
|----------------------------------------|----------------------------------------|
|--1-----0--0--------1-----0--0----------|--1-----0--0--------1-----1-----1-------|
|--1-----0--0--------1-----0--0----------|--1-----0--0--------1-----1-----1-------|
|--1-----0--0--------1-----0--0----------|--1-----0--0--------1-----1-----1-------|
         .  .              .  .                   .  .


Chorus 1

|----------------------------------------|----------------------------------|
|----------------------------------------|----------------------------------|
|----------------------------------------|----------------------------------|
|--0--------0-----0--0--------0-----0----|--10-------10----10-10-(b9)-(b9)-8----|
|--0--------0-----0--0--------0-----0----|--10-------10----10-10-(b9)-(b9)-8----|
|--0--------0-----0--0--------0-----0----|--10-------10----10-10-(b9)-(b9)-8----|


|----------------------------------------|----------------------------------|
|----------------------------------------|----------------------------------|
|----------------------------------------|----------------------------------|
|--0--------0-----0--0--------0-----0----|--10-------10----10-10-(b9)-(b9)-8----|
|--0--------0-----0--0--------0-----0----|--10-------10----10-10-(b9)-(b9)-8----|
|--0--------0-----0--0--------0-----0----|--10-------10----10-10-(b9)-(b9)-8----|


|----------------------------------------|----------------------------------|
|----------------------------------------|----------------------------------|
|----------------------------------------|----------------------------------|
|--0--------0-----0--0--------0-----0----|--10-------10----10-10-(b9)-(b9)-8----|
|--0--------0-----0--0--------0-----0----|--10-------10----10-10-(b9)-(b9)-8----|
|--0--------0-----0--0--------0-----0----|--10-------10----10-10-(b9)-(b9)-8----|


|----------------------------------------|----------------------|
|----------------------------------------|----------------------|
|----------------------------------------|----------------------|
|--0--------0-----0--0--------0-----0----|--10-------10----10---|
|--0--------0-----0--0--------0-----0----|--10-------10----10---|
|--0--------0-----0--0--------0-----0----|--10-------10----10---|



Verse 2 


|----------------------------------------|----------------------------------------|
|----------------------------------------|----------------------------------------|
|----------------------------------------|----------------------------------------|
|--1-----0--0--------1-----0--0----------|--1-----0--0--------1-----1-----1-------|
|--1-----0--0--------1-----0--0----------|--1-----0--0--------1-----1-----1-------|
|--1-----0--0--------1-----0--0----------|--1-----0--0--------1-----1-----1-------|
         .  .              .  .                   .  .
|----------------------------------------|----------------------------------------|
|----------------------------------------|----------------------------------------|
|----------------------------------------|----------------------------------------|
|--1-----0--0--------1-----0--0----------|--1-----0--0--------1-----1-----1-------|
|--1-----0--0--------1-----0--0----------|--1-----0--0--------1-----1-----1-------|
|--1-----0--0--------1-----0--0----------|--1-----0--0--------1-----1-----1-------|
         .  .              .  .                   .  .

|----------------------------------------|----------------------------------------|
|----------------------------------------|----------------------------------------|
|----------------------------------------|----------------------------------------|
|--1-----0--0--------1-----0--0----------|--1-----0--0--------1-----1-----1-------|
|--1-----0--0--------1-----0--0----------|--1-----0--0--------1-----1-----1-------|
|--1-----0--0--------1-----0--0----------|--1-----0--0--------1-----1-----1-------|
         .  .              .  .                   .  .

|----------------------------------------|----------------------------------------|
|----------------------------------------|----------------------------------------|
|----------------------------------------|----------------------------------------|
|--1-----0--0--------1-----0--0----------|--1-----0--0--------1-----1-----1-------|
|--1-----0--0--------1-----0--0----------|--1-----0--0--------1-----1-----1-------|
|--1-----0--0--------1-----0--0----------|--1-----0--0--------1-----1-----1-------|
         .  .              .  .                   .  .





Chorus 2


|----------------------------------------|----------------------------------|
|----------------------------------------|----------------------------------|
|----------------------------------------|----------------------------------|
|--0--------0-----0--0--------0-----0----|--10-------10----10-10-(b9)-(b9)-8----|
|--0--------0-----0--0--------0-----0----|--10-------10----10-10-(b9)-(b9)-8----|
|--0--------0-----0--0--------0-----0----|--10-------10----10-10-(b9)-(b9)-8----|


|----------------------------------------|----------------------------------|
|----------------------------------------|----------------------------------|
|----------------------------------------|----------------------------------|
|--0--------0-----0--0--------0-----0----|--10-------10----10-10-(b9)-(b9)-8----|
|--0--------0-----0--0--------0-----0----|--10-------10----10-10-(b9)-(b9)-8----|
|--0--------0-----0--0--------0-----0----|--10-------10----10-10-(b9)-(b9)-8----|


|----------------------------------------|----------------------------------|
|----------------------------------------|----------------------------------|
|----------------------------------------|----------------------------------|
|--0--------0-----0--0--------0-----0----|--10-------10----10-10-(b9)-(b9)-8----|
|--0--------0-----0--0--------0-----0----|--10-------10----10-10-(b9)-(b9)-8----|
|--0--------0-----0--0--------0-----0----|--10-------10----10-10-(b9)-(b9)-8----|


|----------------------------------------|----------------------------------|
|----------------------------------------|----------------------------------|
|----------------------------------------|----------------------------------|
|--0--------0-----0--0--------0-----0----|--10-------10----10-10-(b9)-(b9)-8----|
|--0--------0-----0--0--------0-----0----|--10-------10----10-10-(b9)-(b9)-8----|
|--0--------0-----0--0--------0-----0----|--10-------10----10-10-(b9)-(b9)-8----|


|----------------------------------------|----------------------------------|
|----------------------------------------|----------------------------------|
|----------------------------------------|----------------------------------|
|--0--------0-----0--0--------0-----0----|--10-------10----10-10-(b9)-(b9)-8----|
|--0--------0-----0--0--------0-----0----|--10-------10----10-10-(b9)-(b9)-8----|
|--0--------0-----0--0--------0-----0----|--10-------10----10-10-(b9)-(b9)-8----|


|----------------------------------------|----------------------------------|
|----------------------------------------|----------------------------------|
|----------------------------------------|----------------------------------|
|--0--------0-----0--0--------0-----0----|--10-------10----10-10-(b9)-(b9)-8----|
|--0--------0-----0--0--------0-----0----|--10-------10----10-10-(b9)-(b9)-8----|
|--0--------0-----0--0--------0-----0----|--10-------10----10-10-(b9)-(b9)-8----|


|----------------------------------------|----------------------------------|
|----------------------------------------|----------------------------------|
|----------------------------------------|----------------------------------|
|--0--------0-----0--0--------0-----0----|--10-------10----10-10-(b9)-(b9)-8----|
|--0--------0-----0--0--------0-----0----|--10-------10----10-10-(b9)-(b9)-8----|
|--0--------0-----0--0--------0-----0----|--10-------10----10-10-(b9)-(b9)-8----|


|----------------------------------------|----------------------|
|----------------------------------------|----------------------|
|----------------------------------------|----------------------|
|--0--------0-----0--0--------0-----0----|--10-------10----10---|
|--0--------0-----0--0--------0-----0----|--10-------10----10---|
|--0--------0-----0--0--------0-----0----|--10-------10----10---|





Verse Break 



|----------------------------------------|----------------------------------------|
|----------------------------------------|----------------------------------------|
|----------------------------------------|--------------------------------15-14---|
|----------------------------------------|----------------------------------------|
|----------------------------------------|--------------------------------13-12---|
|--10-(b9)-(b9)-8--------10-(b9)-(b9)-8----------|--10-(b9)-(b9)-8--------10-(b9)-(b9)-8----------|



|----------------------------------------|----------------------------------------|
|----------------------------------------|----------------------------------------|
|----------------------------------------|--------------------------------15-14---|
|----------------------------------------|----------------------------------------|
|----------------------------------------|--------------------------------13-12---|
|--10-(b9)-(b9)-8--------10-(b9)-(b9)-8----------|--10-(b9)-(b9)-8--------10-(b9)-(b9)-8----------|





Verse 3


|----------------------------------------|----------------------------------------|
|----------------------------------------|----------------------------------------|
|----------------------------------------|----------------------------------------|
|--1-----0--0--------1-----0--0----------|--1-----0--0--------1-----0--0----------|
|--1-----0--0--------1-----0--0----------|--1-----0--0--------1-----0--0----------|
|--1-----0--0--------1-----0--0----------|--1-----0--0--------1-----0--0----------|
         .  .              .  .                   .  .              .  .


|----------------------------------------|----------------------------------------|-------------|
|----------------------------------------|----------------------------------------|-------------|
|----------------------------------------|----------------------------------------|-------------|
|--1-----0--0--------1-----0--0----------|--1-----0--0--------1-----0--0----------|--1--1--1----|
|--1-----0--0--------1-----0--0----------|--1-----0--0--------1-----0--0----------|--1--1--1----|
|--1-----0--0--------1-----0--0----------|--1-----0--0--------1-----0--0----------|--1--1--1----|
         .  .              .  .                   .  .              .  .



Chorus 3

(x7)

|----------------------------------------|----------------------------------|
|----------------------------------------|----------------------------------|
|----------------------------------------|----------------------------------|
|--0--------0-----0--0--------0-----0----|--10-------10----10-10-(b9)-(b9)-8----|
|--0--------0-----0--0--------0-----0----|--10-------10----10-10-(b9)-(b9)-8----|
|--0--------0-----0--0--------0-----0----|--10-------10----10-10-(b9)-(b9)-8----|


|----------------------------------------|----------------------------------|
|----------------------------------------|----------------------------------|
|----------------------------------------|----------------------------------|
|--0--------0-----0--0--------0-----0----|--10-------10----10-10-(b9)-(b9)-8----|
|--0--------0-----0--0--------0-----0----|--10-------10----10-10-(b9)-(b9)-8----|
|--0--------0-----0--0--------0-----0----|--10-------10----10-10-(b9)-(b9)-8----|


|----------------------------------------|----------------------------------|
|----------------------------------------|----------------------------------|
|----------------------------------------|----------------------------------|
|--0--------0-----0--0--------0-----0----|--10-------10----10-10-(b9)-(b9)-8----|
|--0--------0-----0--0--------0-----0----|--10-------10----10-10-(b9)-(b9)-8----|
|--0--------0-----0--0--------0-----0----|--10-------10----10-10-(b9)-(b9)-8----|


|----------------------------------------|----------------------------------|
|----------------------------------------|----------------------------------|
|----------------------------------------|----------------------------------|
|--0--------0-----0--0--------0-----0----|--10-------10----10-10-(b9)-(b9)-8----|
|--0--------0-----0--0--------0-----0----|--10-------10----10-10-(b9)-(b9)-8----|
|--0--------0-----0--0--------0-----0----|--10-------10----10-10-(b9)-(b9)-8----|


|----------------------------------------|----------------------------------|
|----------------------------------------|----------------------------------|
|----------------------------------------|----------------------------------|
|--0--------0-----0--0--------0-----0----|--10-------10----10-10-(b9)-(b9)-8----|
|--0--------0-----0--0--------0-----0----|--10-------10----10-10-(b9)-(b9)-8----|
|--0--------0-----0--0--------0-----0----|--10-------10----10-10-(b9)-(b9)-8----|


|----------------------------------------|----------------------------------|
|----------------------------------------|----------------------------------|
|----------------------------------------|----------------------------------|
|--0--------0-----0--0--------0-----0----|--10-------10----10-10-(b9)-(b9)-8----|
|--0--------0-----0--0--------0-----0----|--10-------10----10-10-(b9)-(b9)-8----|
|--0--------0-----0--0--------0-----0----|--10-------10----10-10-(b9)-(b9)-8----|


|----------------------------------------|----------------------------------|
|----------------------------------------|----------------------------------|
|----------------------------------------|----------------------------------|
|--0--------0-----0--0--------0-----0----|--10-------10----10-10-(b9)-(b9)-8----|
|--0--------0-----0--0--------0-----0----|--10-------10----10-10-(b9)-(b9)-8----|
|--0--------0-----0--0--------0-----0----|--10-------10----10-10-(b9)-(b9)-8----|


|----------------------------------------|----------------------|
|----------------------------------------|----------------------|
|----------------------------------------|----------------------|
|--0--------0-----0--0--------0-----0----|--10-------10----10---|
|--0--------0-----0--0--------0-----0----|--10-------10----10---|
|--0--------0-----0--0--------0-----0----|--10-------10----10---|






Outro


|----------------------------------------|
|----------------------------------------|
|--------------12------------------------|
|----------------------------------------|
|--------------10------------------------|
|--10-(b9)-(b9)-8----------------------------|
               (Let Ring)


|----------------------------------------|----------------------------------------|
|----------------------------------------|----------------------------------------|
|----------------------------------------|--------------------------------15-14---|
|----------------------------------------|----------------------------------------|
|----------------------------------------|--------------------------------13-12---|
|--10-(b9)-(b9)-8--------10-(b9)-(b9)-8----------|--10-(b9)-(b9)-8--------10-(b9)-(b9)-8----------|


|----------------------------------------|----------------------------------------|
|----------------------------------------|----------------------------------------|
|----------------------------------------|--------------------------------15-14---|
|----------------------------------------|----------------------------------------|
|----------------------------------------|--------------------------------13-12---|
|--10-(b9)-(b9)-8--------10-(b9)-(b9)-8----------|--10-(b9)-(b9)-8--------10-(b9)-(b9)-8----------|


|----------------------------------------|----------------------------------------|
|----------------------------------------|----------------------------------------|
|----------------------------------------|--------------------------------15-14---|
|----------------------------------------|----------------------------------------|
|----------------------------------------|--------------------------------13-12---|
|--10-(b9)-(b9)-8--------10-(b9)-(b9)-8----------|--10-(b9)-(b9)-8--------10-(b9)-(b9)-8----------|


|----------------------------------------|----------------------------------------|
|----------------------------------------|----------------------------------------|
|----------------------------------------|--------------------------------15-14---|
|----------------------------------------|----------------------------------------|
|----------------------------------------|--------------------------------13-12---|
|--10-(b9)-(b9)-8--------10-(b9)-(b9)-8----------|--10-(b9)-(b9)-8--------10-(b9)-(b9)-8----------|
  • Enviada por: Sem inscrição
  • Exibições: 341
  • Nº de acordes: 7