Deftones
  • Violão
  • Guitarra
  • Teclado
  • Cavaquinho
  • Contra-baixo
  • Bateria
  • Gaita
  • Guitar Pro
Transcribed by: Vincent Trombly 
 
Email: mrf34@yahoo.com 
 
  
 
For this song you will need the following it is not needed but is recommended 
 
1. Deley pedel or on amp effect. 
 
2. Chorus pedel or on amp effect. 
 
  
 
This song is also tuned a whole step down dropped D (CGCFAD) 
 
  
 
Intro/Main Riff 
 
-|--------------------------------------------------------------------------|- 
 
-|--------------------------------------------------------------------------|- 
 
-|-10-10-10-10-10-10-10-10-10-10-10-10--------------------------------------|- 
 
-|-x--x--x--x--x--x--x--x--x--x--x--x--5--5-5--8-8-8--7-7-7--8-8-8--7-7-7---|- 
 
-|-8--8--8--8--8--8--8--8--8--8--8--8--5--5-5--5-5-5--5-5-5--5-5-5--5-5-5---|- 
 
-|-0--0--0--0--0--0--0--0--0--0--0--0--5--5-5--5-5-5--5-5-5--5-5-5--5-5-5---|- 
 
                                                                               
 
Chorus 
 
-|--------------------------------------------------------------------------|- 
 
-|------------------------------------------10-10-10----------10-10-10------|- 
 
-|------------------------------------------10-10-10----------10-10-10------|- 
 
-|-0--0--0--0--0--0--0--0--0--0--0-0--8--8--8--8--8--8--8--8--8--8--8-------|- 
 
-|-0--0--0--0--0--0--0--0--0--0--0-0--8--8--8--8--8--8--8--8--8--8--8-------|- 
 
-|-0--0--0--0--0--0--0--0--0--0--0-0--8--8--8--8--8--8--8--8--8--8--8-------|- 
 
                                                                               
 
2nd part of chorus W/T Chorus Effect 
 
-|--------------------------------------------------------------------------|- 
 
-|--------------------------------------------------------------------------|- 
 
-|--------------------------------------------------------------------------|- 
 
-|-3--3--3--3--3--3--3--3--3--3--3--0--0--0--0--0--0--0--0--0--0--0--0------|- 
 
-|-3--3--3--3--3--3--3--3--3--3--3--0--0--0--0--0--0--0--0--0--0--0--0------|- 
 
-|-3--3--3--3--3--3--3--3--3--3--3--0--0--0--0--0--0--0--0--0--0--0--0------|- 
 
                                                                               
 
Bridge W/T Delay Effect 
 
-|--------------------------------------------------------------------------|- 
 
-|--------------------------------------------------------------------------|- 
 
-|--------------------------------------------------------------------------|- 
 
-|----8--7-----7------------------------------------------------------------|- 
 
-|----------8-----8--0------------------------------------------------------|- 
 
-|-5-----------------0------------------------------------------------------|- 
 
                                                                               
 
  
 
-|--------------------------------------------------------------------------|- 
 
-|--------------------------------------------------------------------------|- 
 
-|-10-10-10-10-10-10-10-10-10-10-10-10--------------------------------------|- 
 
-|-x--x--x--x--x--x--x--x--x--x--x--x--5--5--5--5--5--5--5--5--5--5--5--5---|- 
 
-|-8--8--8--8--8--8--8--8--8--8--8--8--5--5--5--5--5--5--5--5--5--5--5--5---|- 
 
-|-0--0--0--0--0--0--0--0--0--0--0--0--5--5--5--5--5--5--5--5--5--5--5--5---|- 
 
                                                                               
 
  
 
-|--------------------------------------------------------------------------|- 
 
-|----------------------------------------------10-10-10----------10-10-10--|- 
 
-|----------------------------------------------10-10-10----------10-10-10--|- 
 
-|-0--0--0--0--0--0--0--0--0--0--0--0--8--8--8--8--8--8--8--8--8--8--8--8---|- 
 
-|-0--0--0--0--0--0--0--0--0--0--0--0--8--8--8--8--8--8--8--8--8--8--8--8---|- 
 
-|-0--0--0--0--0--0--0--0--0--0--0--0--8--8--8--8--8--8--8--8--8--8--8--8---|- 
 
                                                                               
 
  
 
-|--------------------------------------------------------------------------|- 
 
-|--------------------------------------------------------------------------|- 
 
-|--------------------------------------------------------------------------|- 
 
-|-3--3--3--3--3--3--3--3--3--3--3--3--0--0--0--0--0--0--0--0--0--0--0--0---|- 
 
-|-3--3--3--3--3--3--3--3--3--3--3--3--0--0--0--0--0--0--0--0--0--0--0--0---|- 
 
-|-3--3--3--3--3--3--3--3--3--3--3--3--0--0--0--0--0--0--0--0--0--0--0--0---|- 
 
                                                                               
 
Part under the part above this it is optional 
 
-|--------------------------------------------------------------------------|- 
 
-|--------------------------------------------------------------------------|- 
 
-|--------------------------------------------------------------------------|- 
 
-|-3--3-3--5^--3--3-3--5^--0--0-0--5^--0--0-0--5^---------------------------|- 
 
-|-3--3-3--5^--3--3-3--5^--0--0-0--5^--0--0-0--5^---------------------------|- 
 
-|-3--3-3--5^--3--3-3--5^--0--0-0--5^--0--0-0--5^---------------------------|- 
 
                                                                               
 
Outro 
 
-|--------------------------------------------------------------------------|- 
 
-|--------------------------------------------------------------------------|- 
 
-|-10-10-10-10-10-10-------------------10-10-10-10-10-10--------------------|- 
 
-|-x--x--x--x--x--x--5--8--7--7--8--7--x--x--x--x--x--x--5--8--7--7--8--7---|- 
 
-|-8--8--8--8--8--8--5--5--5--5--5--5--8--8--8--8--8--8--5--5--5--5--5--5---|- 
 
-|-0--0--0--0--0--0--5--5--5--5--5--5--0--0--0--0--0--0--5--5--5--5--5--5---|- 
 
                                                                               
 
  
 
-|--------------------------------------------------------------------------|- 
 
-|--------------------------------------------------------------------------|- 
 
-|-10-10-10-10-10-10--------------------------------------------------------|- 
 
-|-x--x--x--x--x--x--5--7--8--7---------------------------------------------|- 
 
-|-8--8--8--8--8--8--5--5--5--5---------------------------------------------|- 
 
-|-0--0--0--0--0--0--5--5--5--5---------------------------------------------|-
  • Enviada por: Sem inscrição
  • Exibições: 267
  • Nº de acordes: 1