• Violão
  • Guitarra
  • Teclado
  • Cavaquinho
  • Contra-baixo
  • Bateria
  • Gaita
  • Guitar Pro
Tabbed by:Paul Finnigan

Tuning:EADGBe

Riff I (Intro)

        D Played over the top
e|--------------------------------------------------------------------------|
B|--------------------------------------------------------------------------|
G|-11-11-9-9-11-4-6---------------------------------------------------------|
D|-0--0--0-0-0--0-0---------------------------------------------------------|
A|--------------------------------------------------------------------------|
E|--------------------------------------------------------------------------|

Riff II ("So you think you've had a walk in the park")

   G
e|-3-----------------------------------------------------------------------|
B|-3-----------------------------------------------------------------------|
G|-4-----------------------------------------------------------------------|
D|-5-----------------------------------------------------------------------|
A|-5-----------------------------------------------------------------------|
E|-3-----------------------------------------------------------------------|

Every time this G is played, the 2nd Guitar plays this chord straight after it:

e|-------------------------------------------------------------------------|
B|-12----------------------------------------------------------------------|
G|-12----------------------------------------------------------------------|
D|-12----------------------------------------------------------------------|
A|-------------------------------------------------------------------------|
E|-------------------------------------------------------------------------|

Riff III ("What's the name you tried to find")

A,G,Em Played over the top.

e|--------------------------------------------------------------------------|
B|-8-10-12-14---------------------------------------------------------------|
G|-9-9--12-12---------------------------------------------------------------|
D|--------------------------------------------------------------------------|
A|--------------------------------------------------------------------------|
E|--------------------------------------------------------------------------|

Riff IV (Middle section/quieter part)
Play these chords according to the song

e|-0---0--0-----------------------------------------------------------------|
B|-10--12-10-12-12----------------------------------------------------------|
G|-11--11-11-12-12----------------------------------------------------------|
D|-12--12-12-12-12----------------------------------------------------------|
A|--------------------------------------------------------------------------|
E|--------------------------------------------------------------------------|

Riff I fades back in.
Riff II
Riff I


Enviada por Sem inscrição
Nº de acordes: 1