Bombay Bicycle Club

Fairytale Lullaby

Bombay Bicycle Club

Compartilhar:

  • Violão
  • Guitarra
  • Teclado
  • Cavaquinho
  • Contra-baixo
  • Bateria
  • Gaita
  • Guitar Pro
open D major (DADF#AD) 


VERSE
  D                    G        A       D                       G        A        D
D-------4h5p4-0------|----0--------0----0-|-------4h5p4-0------|----0--------0----0-|
A---------------0----|--------------------|---------------0----|--------------------|
F#-----------------0-|-1-----1-s-3----3---|------------------0-|-1-----1-s-3----3---|
D----0---------------|--------------------|----0---------------|--------------------|
A--------------------|-2-----2-s-5----5---|--------------------|-2-----2-s-5----5---|
D--0--------0--------|----0--------0----0-|--0--------0--------|----0--------0----0-|
         If            rainbow, come with me,     I will
          you                                       take you to the magic purple sea
           want to ride a
D-------4h5p4-0------|----0--------0----0-|-------4h5p4-0------|----0--------0----0-|
A---------------0----|--------------------|---------------0----|--------------------|
F#-----------------0-|-1-----1-s-3----3---|------------------0-|-1-----1-s-3----3---|
D----0---------------|--------------------|----0---------------|--------------------|
A--------------------|-2-----2-s-5----5---|--------------------|-2-----2-s-5----5---|
D--0--------0--------|----0--------0----0-|--0--------0--------|----0--------0----0-|
    Maybe we will find a thousand sugar fish;    When              grant your every wish
                                                 you eat them they will
A7 D
D--------0---------0--|------0------0----0-|----5--4--0---0--|
A--0---2-----2---0----|--0h2---2--0---0h2--|-2---------------|
F#-1---1-----1---1----|--1--------1---1----|-----------------|
D------2-----2--------|--2------------2----|----------0------|
A--0-------0-----0----|--0--------0--------|-0---------------|
D---------------------|--------------------|---0----------0--|
And  if you    want your  friends to come,
                                        Then
                                           bring them all along
  • Enviada por: Sem inscrição
  • Exibições: 52
  • Nº de acordes: 5