Black Sabbath

Children Of The Sea

Black Sabbath

Compartilhar:

Intro: GUITARRA BASE RIFF 1:
E|-------1P0--------3-----3-----|-------1P0---------------------|
B|-----3-----3--------0-----0---|-----3-----3-------------------|
G|---2---------2--------------2-|---2---------2-------0---------|
D|-0-------------0------0-------|-0-----------------2-----0-3P0-|
A|------------------------------|---------------0H3-----2-------|
E|------------------------------|-------------------------------|

Intro: GUITARRA SOLO
E|------------------------------|------------------------------------|
B|------------------------------|------------------------------------|
G|----------12-------0----------|-10-9---------7s9-7-----------------|
D|-12-14-15----0-2-3------------|------10-7-10--------10-9------7s12-|
A|------------------------------|--------------------------10-7------|
E|------------------------------|------------------------------------|


E|-------13-10------------------|--------------------------------|
B|-10-13------------------------|--------------------------------|
G|-------------------7s10-7-----|--9-12-10-9------10p9-----------|
D|------------------------------|-----------12-9-------12--------|
A|------------------------------|--------------------------------|
E|------------------------------|--------------------------------|
                                 FINAL DA INTRODUÇÃO
E|------------------------------|------1~~-----------------------|
B|------------------------------|------3~~-----------------------|
G|-10p9----------10-10----------|------2~~-----------------------|
D|------12-10----------12-------|------0~~-----------------------|
A|------------------------------|--------------------------------|
E|------------------------------|--------------------------------|


RIFF 2:
AGORA ESTA PARTE TEM UM SEGREDO:(>>=PALETA PARA BAIXO &   >     >  >     >>  > >>>  >  >>>> >  >     >>  > >>
  • Enviada por: Sem inscrição
  • Exibições: 553
  • Nº de acordes: 0