Arctic Monkeys

Old Yellow Bricks

Arctic Monkeys

Compartilhar:

Intro / Versos:
E|--------------------------------------------|
B|--------------------------------------------|
G|--------------------------------------------|
D|--------------------------------------------| (6x)
A|------------7-7-7-77--8-8-8-88--5-5-5-55----|
E|---5-5-5-55---------------------------------|


Refrão:
E|---------------------------|      |------|
B|---------------------------|      |------|   
G|--7--9--10---7-------------|      |--7---|   
D|--7--9--10---7-------------| (3x) |--7---| (Deixa tocar)
A|--5--7--8----9-------------|      |--5---|
E|---------------------------|      |------|

Verso 1:
E|--------------------------------------------|
B|--------------------------------------------|
G|--------------------------------------------|
D|--------------------------------------------| (4x)
A|------------7-7-7-77--8-8-8-88--5-5-5-55----|
E|---5-5-5-55---------------------------------|

E|-------------|
B|--5-6-5-4----|
G|-------------|
D|-------------| (8x)
A|-------------|
E|-------------|


Refrão:
E|---------------------------|      
B|---------------------------|         
G|--7--9--10---7-------------|         
D|--7--9--10---7-------------| (3x)
A|--5--7--8----9-------------|      
E|---------------------------|      


Ponte:
E|---------------------------|      |-----------------|
B|---------------------------|      |-----------------|
G|---------------------------|      |-----------------| 
D|----9-10-------------------| (3x) |---9-10----------|
A|--7-------5-7---2-3-5-7----|      |-7------5-7------|
E|---------------------------|      |------------555--|

E|-------------|
B|--5-6-5-4----|
G|-------------|
D|-------------| (8x)  
A|-------------|
E|-------------|


E|--------------------------------|
B|--12-13-12-13-12-13-12131213----|
G|--------------------------------| (4x) 
D|--------------------------------|
A|--------------------------------|
E|--------------------------------|


Refrão:
E|---------------------------|      |------|
B|---------------------------|      |------|   
G|--7--9--10---7-------------|      |--7---|   
D|--7--9--10---7-------------| (7x) |--7---| (Deixa tocar)
A|--5--7--8----9-------------|      |--5---|
E|---------------------------|      |------|

E|-------------|
B|--5-6-5-4----|
G|-------------|
D|-------------| (6x)  
A|-------------|
E|-------------|


Outro:
E|--------------------------------------------|
B|--------------------------------------------|
G|--------------------------------------------|
D|--------------------------------------------| (2x)
A|------------7-7-7-77--8-8-8-88--5-5-5-55----|
E|---5-5-5-55---------------------------------|

E|-------------|
B|--5-6-5-4----|
G|-------------|
D|-------------| (8x) 
A|-------------|
E|-------------|


E|--------------------------------|
B|--12-13-12-13-12-13-12131213----|
G|--------------------------------| (4x)
D|--------------------------------|
A|--------------------------------|
E|--------------------------------|
  • Enviada por: Sem inscrição
  • Exibições: 342
  • Nº de acordes: 0