Train

Meet Virginia

Train

4 exibições
Verso:

G--------------------------------------------11h12p11h12p11----------------------------
D---------10-9h10p9---------12-10----------------------------10-12--------12-10--------
A-10-10---------------12-12---------10--------------------------------12-12---------10-  Repetir
E--------------------------------------------------------------------------------------

Refrão:

G-------------------------------------------------------
D-------------------------------------------------------
A-7-7-7-7-7-7-7-7--------------------------------------- Repetir
E----------------------8-8-8-8-10-10-10-10--------------


Enviada por Sem inscrição
Nº de acordes: