Tonic

If You Could Only See

Tonic

1 exibições
G|--------------------------------------------------------------------|
D|--------------------------------------------------------------------| x 1
A|--------------------------------------------------------------------|
E|---66-22--44--22-----------66-22---44---22--------------------------|

G|--------------------------------------------------------------------|
D|--------------------------------------------------------------------| x2
A|-------------------------------------------------------66666--------|
E|---4h666-0-4h666-0-4h666--0-4h666----1h222-0-1h222-00---------------|

G|--------------------------------------------------------------------|
D|--------------------------------------------------------------------|
A|-------4444---------------------------------------------------------| x 1
E|--6666-------444444\2~----------------------------------------------|

G|--------------------------------------------------------------------|
D|--------------------------------------------------------------------|
A|-------4444---------------------------------------------------------| x 4
E|--6666-------4444---2222--------------------------------------------|

G|--------------------------------------------------------------------|
D|--------------------------------------------------------------------| x 1
A|--------------------------------------------------------------------|
E|---66-22---44--22-----------66---22--44---22------------------------|

G|--------------------------------------------------------------------|
D|--------------------------------------------------------------------| x2
A|-------------------------------------------------------66666--------|
E|---4h666-0-4h666-0-4h666--0-4h666----1h222-0-1h222-00---------------|

G|--------------------------------------------------------------------|
D|--------------------------------------------------------------------|
A|-------4444--------------------------4444---------------------------| x 1
E|--6666-------4444---2222-------6666-------4444---2~-----------------|

G|--------------------------------------------------------------------|
D|--------------------------------------------------------------------|
A|-------4444---------------------------------------------------------| x 4
E|--6666-------4444---2222--------------------------------------------|



Iffy about this part, just do as manyt times as needed, it sounds fine.
G|--------------------------------------------------------------------|
D|--------------------------------------------------------------------|
A|--------------------------------------------------------------------|
E|-11-22222222--11-22222222-11-22222222--11-22222222------------------|


G|--------------------------------------------------------------------|
D|--------------------------------------------------------------------|
A|-------4444--------------------------4444---------------------------| x 1
E|--6666-------4444---2222-------6666-------44444\2~------------------|


G|--------------------------------------------------------------------|
D|--------------------------------------------------------------------|
A|-------4444---------------------------------------------------------| x 2
E|--6666-------4444---2222--------------------------------------------|

G|--------------------------------------------------------------------|
D|--------------------------------------------------------------------|
A|-------4444---------------------------------------------------------| x 1
E|--6666-------4444---2~----------------------------------------------|


Enviada por Sem inscrição
Nº de acordes: