The Calling

Could It Be Any Harder

The Calling

85 exibições
Inicio só na percussão e no violão...

"...one more day"
G -|-----------------------------|
D -|-----------------------------|
A -|-----------------------------|
E -|--5\1------------------------|

Riff 1
G -|-----------------------------|
D -|-----------------------------|
A -|----------------3------------|
E -|--1------3-------------5-----|

Faça um slide da 5\1 (Lá para o Fá)

Refrão:
G -|-----------------------------|
D -|-----------------------------|
A -|----------------3------------|
E -|--1------3-------------5-----|

"If I only had one more day"
G -|-----------------------------|
D -|-----------------------------|
A -|-----------------------------|
E -|--1------3-------5-----------|

Riff 1, Refrão, Riff 1 até terminar


=========================
4ª Tab. minha que está no ar... Abraços Tschope, e todos que me apoiam


Enviada por Sem inscrição
Nº de acordes: