Slipknot

Scissor's

Slipknot

37 exibições
TABBED BY: Nick Amos - *


D|----------|
A|----------|
E|----------|
B|2---1-0-1-|


D|------------------|
A|------------------|
E|------------------|
B|2---1--2-2-1--2-0-|


D|-----------------------------|
A|-----------------------------|
E|-----------------2-----2-----|
B|2-3-2-0-2-3-2---2-----2--2-3-|D|---------|-------|
A|---------|-------|
E|---------|-------|
B|-03-222--|-2---1-|


D|---------|
A|---------|
E|----2----|
B|-0----1--|


D|-------------------|
A|-------------------|
E|-------------------|
B|0-3--0-2--0-3--0-2-|D|----------|
A|----------|
E|-4-3--4-3-|
B|----------|D|-------|
A|-------|
E|-------|
B|0-2--1-|D|----------|
A|----------|
E|----------|
B|--2-2---1-|


Enviada por Sem inscrição
Nº de acordes: