Slipknot

My Plague

Slipknot

171 exibições
Intro e Verso
------------------------- 
------------------------- 
------------------------- 
------------------------- 
0000-1-2------------------ 

Chorus- 
------------------------------------- 
------------------------------------- 
------------------------------------- 
------------------------------------- 
0--55--77--88--222222555555---------- 
                                       
------------------------------------- 
------------------------------------- 
------------------------------------- 
------------------------------------- 
0--55--77--88--333333666666---------- 

------------------------------------- 
------------------------------------- 
------------------------------------- 
------------------------------------- 
0--55--77--88--222222555555---------- 

------------------------------------- 
------------------------------------- 
------------------------------------- 
------------------------------------- 
0--55--77--88--333333333333---------- 

então jogar o versículo novamente 
em seguida, o Coro 
então não jogar durante a primeira guitarra solo, quando surge o 2 º um jogar este
------------------------------------- 
------------------------------------- 
------------------------------------- 
------------------------------------- 
2222532------------------------------ 
depois do solo, desempenham o Chorus, então este jogo
------------------------------------- 
------------------------------------- 
------------------------------------- 
------------------------------------- 
22332----22552222-------------------- 


Enviada por Aviℓis
Nº de acordes: