Seether

Fine Again

Seether

Compartilhar:

Intro
G:----------------|
D:----------------|
A:----------------| x2
D:--4-/7\-2-0-----|

Verse
G:----------------------------|
D:----------------------------|
A:----------------------------| x8
D:--4-4-4/77-7--2-2-2--00-0-2-|

Chorus
G:---------------------------------|
D:---------------------------------|
A:--------55-5h6p5--2-2-2----------| x4
D:--4-4-4-----------------22-2-xx--|

right after first chorus
G:----------|
D:----------|
A:----------|
D:--4~-h9\--|

-->Verse x7
-->Chorus x4

Bridge
G:----------|
D:----------|
A:--5~--2~--| x4
D:----------|

-->Chorus x12

End On
G:----|
D:----|
A:----|
D:--4-|
  • Enviada por: Sem inscrição
  • Exibições: 47