Seether

Fake It

Seether

64 exibições
Tuning: C,G,C,F (Dropped D down a full step)

Intro/Verse 0:00 - 0:29
F|o---------------------------------------|-------------------------------------------o|
C|o--------------------------------------3|-------------------------------------------o|
G|o-5-5----5------------3--3----3---------|-5--5----5-----------3--3----3-------------o|
C|o----------3--3----3------------5--5----|-----------3--3----3-----------5--5--3--3--o|

Chorus 0:29 - 0:44
   Fake      It       If....
F|o---------------------------------------------------------------------------o|
C|o---------------------------------------------------------------------------o|
G|o--------------------------------------------3---3--------------------------o|
C|o--0--0----0--0-0-----0--3---3-----3---3--0---------------------------------o|

     Whoa      woah oh     Your...
F|-------------------------------------------------------------------------------|
C|-------------3--3--3--3--------------------------------------------------------|
G|-5--5--5--5--------------3--3--3--3--------------------------------------------|
C|-------------------------------------5--5--3--3--------------------------------|

Verse (Repete untill chorus again)
F|o---------------------------------------|-------------------------------------------o|
C|o--------------------------------------3|-------------------------------------------o|
G|o-5-5----5------------3--3----3---------|-5--5----5-----------3--3----3-------------o|
C|o----------3--3----3------------5--5----|-----------3--3----3-----------5--5--3--3--o|

Chorus 2
F|o------------------------|-----------------------------------------o|
C|o------------------------|-----------------------------------------o|
G|o------------------------|--------------------3---3----------------o|
C|o--0--0----0--0-0-----0--|3---3-----3---3--0-----------------------o|

    Whoa      woah oh     Your...
F|-------------------------------------------------------------------------------|
C|-------------3--3--3--3--------------------------------------------------------|
G|-5--5--5--5--------------3--3--3--3--------------------------------------------|
C|-------------------------------------5--5--3--3--------------------------------|


Interlude 1:27
F|o------------------------------|-------------------------------|
C|o------------------------------|-------------------------------|
G|o------------------------------|-------------------------------|
C|o--3--3---3-3-3---3--3---3-3-3-|--7--7---7-7-7---7--7--7-7-7---|

F|------------------------------|---------------------------------------------|
C|------------------------------|-------------5-5-5--7-7-7--------------------|
G|------------------------------|-7-7-7-5-5-5---------------------------------|
C|-0--0---0-0-0---0-0--0-0-0----|---------------------------------------------|


F|o------------------------------|-------------------------------|
C|o------------------------------|-------------------------------|
G|o------------------------------|-------------------------------|
C|o--3--3---3-3-3---3--3---3-3-3-|--7--7---7-7-7---7--7--7-7-7---|

F|------------------------------|---------------------------------------------|
C|------------------------------|--7--7-7-5--5-5--3-3-3--2-2-2----------------|
G|------------------------------|---------------------------------------------|
C|-0--0---0-0-0---0-0--0-0-0----|---------------------------------------------|

Guitar Solo (1:42)
F|o--------------------------|-------------------------------------------------o|
C|o--------------------------|-------------------------------------------------o|
G|o--5--5--5--5--------------|-3--3--3--3--------------------------------------o|
C|o--------------3--3--3--3--|------------5--5--5--5---------------------------o|

Bridge (1:56) I can fake it with....
G|o--------------------------|--------------------------------------------------o|
D|o--------------------------|--------------------------------------------------o|
A|o--5--5--5--5--3--3--3--3--|--------------------------------------------------o|
E|o--------------------------|-5--5--5--5--3-3-3--0--0--------------------------o|

Bridge part 2  ...I can fake it all.....
G|--------------------------|--------------------------------------------------|
D|--------------------------|--------------------------------------------------|
A|--5--5--5--5--7--7--7--7--|-10-10-10-10-10-10-12-12-12-12-12-12--------------|
E|--------------------------|--------------------------------------------------|

Re-Intro/Verse 2:11
F|o---------------------------------------|-------------------------------------------o|
C|o--------------------------------------3|-------------------------------------------o|
G|o-5-5----5------------3--3----3---------|-5--5----5-----------3--3----3-------------o|
C|o----------3--3----3------------5--5----|-----------3--3----3-----------5--5--3--3--o|

Chorus 3/Outro
F|o------------------------|-----------------------------------------o|
C|o------------------------|-----------------------------------------o|
G|o------------------------|--------------------3---3----------------o|
C|o--0--0----0--0-0-----0--|3---3-----3---3--0-----------------------o|

    Whoa      woah oh     Your...
F|-------------------------------------------------------------------------------|
C|-------------3--3--3--3--------------------------------------------------------|
G|-5--5--5--5--------------3--3--3--3--------------------------------------------|
C|-------------------------------------5--5--3--3--0-----------------------------|


Enviada por Sem inscrição
Nº de acordes: