Roxette

Sleeping In My Car

Roxette

Compartilhar:

intro
--------------------------------------/
--------------------------------------/
--------------------------------------/
-2-2--0-0-2-2-0-0-2-2-2-0-0-2-2-0-0-0-/

verse
-------------/
-------------/
-------2--5--/
-2--0--------/

chorus
---------------------/
---------------------/
-----4-4-4-6-6--2-2--/
-2-2-----------------/
  • Enviada por: Sem inscrição
  • Exibições: 131