Red Hot Chili Peppers

The Zephy Song

Red Hot Chili Peppers

237 exibições
Intro (Espere a guitarra tocar 4 vezes, então dê início)

g----------------!---------------!------------------!------------------!
d----------------!---------------!------------------!------------------!
a----------------!---------------!------------------!------------------!
e----------------!---------------!------------------!------------------!

g----------------!---------------!------------------!------------------!
d-7--------------!-5-------------!------------------!------------------!
a----------------!---------------!-7----------------!-8----------------!
e----------------!---------------!------------------!------------------!

                    Verso

g----------------!---------------!------------------!------------------!
d-7--7-9-9-7-----!-5--5-7-7-5----!------9-9---------!------------------!
a----------------!---------------!-7--7-----7-------!-8--8-----8-------!
e----------------!---------------!------------------!------8-8---------!

g----------------!---------------!------------------!------------------!
d-7--7-9-9-7-----!-5--5-7-7-5----!------9-9---------!------------------!
a----------------!---------------!-7--7-----7-------!-8--8-----8/10----!
e----------------!---------------!------------------!------8-8---------!

g----------------!------7-7------!------------------!------------------!
d-7--7-9-9-7-----!-5--5-----5----!------9-9---------!------------------!
a----------------!---------------!-7--7-----7-------!-8--8-----8-8-----!
e----------------!---------------!------------------!------8-8---------!

g----------------!---------------!------------------!------------------!
d-7--7-9-9-7-----!-5--5-7-7-5----!------9-9---------!---9-10----9-10---!
a----------------!---------------!-7--7-----7-------!-8------8---------!
e----------------!---------------!------------------!------------------!

   Refrão 

g-----11--14------11--14------11----------16-------14------------11-14/1614/11-
d-12----------12----------12------12--12------12-------12--14-14----------------
a-------------------------------------------------------------------------------
e-------------------------------------------------------------------------------
  fly         away        on   my zephyr   I  feel it   m o r e   than ever         



g------11--14-------11---14-------11----------16-------14------------11-14-16---14-
d-12------------12-----------12-------12--12------12-------12--14-14----------14---
a----------------------------------------------------------------------------------
e----------------------------------------------------------------------------------
  and            in         disperfectweather wel find  a  p l a c e  together



        Verso

g----------------!---------------!------------------!------10-10-10----!
d-7--7-9-9-7-----!-5--5-7-7-5----!------9-9---------!------------------!
a----------------!---------------!-7--7-----7-------!-7/8--------------!
e----------------!---------------!------------------!------------------!
  fly              on              my                 wind  

g----------------!---------------!------------------!------------------!
d-7--7-9-9-7-----!-5--5-7-7-5----!------9-9---------!------------------!
a----------------!---------------!-7--7-----7-------!-8--8-----8/10----!
e----------------!---------------!------------------!------8-8---------!

g------9-9-------!------7-7------!------------------!------------------!
d-7--7-----7-----!-5--5-----5----!------9-9---------!---9-10----9-10---!
a----------------!---------------!-7--7-----7-------!-8------8---------!
e----------------!---------------!------------------!------------------!


Refrão 

g-----11--14------11--14------11----------16-------14------------11-14/1614/11-
d-12----------12----------12------12--12------12-------12--14-14----------------
a-------------------------------------------------------------------------------
e-------------------------------------------------------------------------------
  fly         away        on   my zephyr   I  feel it   m o r e   than ever         



g------11--14-------11---14-------11----------16-------14------------11-14-16---14-
d-12------------12-----------12-------12--12------12-------12--14-14----------14---
a----------------------------------------------------------------------------------
e----------------------------------------------------------------------------------
  and            in         disperfectweather wel find  a  p l a c e  together



g---11-14----11-14-----11-12-11-12-11-12-----16------14------------11-14-16-14-14-
d-12------12-------12--------------------12-----12------12--14-14--------------14-
a---------------------------------------------------------------------------------
e---------------------------------------------------------------------------------
inthewaterwherethe    scent of  my  emotion  alltheworldcould pass me  by 
                

            
g---11-14----11-14-----11-12-11-12-11-12-----16------14------------11-14/16-14---
d-12------12-------12--------------------12-----12------12--14-14----------------
a--------------------------------------------------------------------------------
e--------------------------------------------------------------------------------
 fly away on       my z   e   p  h   y   r  wel find a place together


                          
              Solo de guitarra

g-9999-9999-!-7777-7777-!-----------!-------------------!
d-----------!-----------!-9999-9999-!-10101010-10101010-!  2x
a-----------!-----------!-----------!-------------------!
e-----------!-----------!-----------!-------------------!


g----------------!---------------!------------------!------------------!
d----------------!---------------!------------------!------------------!
a----------------!---------------!------2-2---------!------------------!
e-5--5-7-7-5-----!-3--3-5-5-3----!-0--0------0------!-1-1/131313-------!

g----------------!---------------!------------------!------------------!
d----------------!---------------!------------------!------------------!
a----------------!---------------!------2-2---------!------------------!
e-5--5-7-7-5-----!-3--3-5-5-3----!-0--0-----0-------!-1-1-1-1----------!

  
         Refrão


g-----11--14------11--14------11----------16-------14------------11-14/1614/11-
d-12----------12----------12------12--12------12-------12--14-14----------------
a-------------------------------------------------------------------------------
e-------------------------------------------------------------------------------
  fly         away        on   my zephyr   I  feel it   m o r e   than ever         



g------11--14-------11---14-------11----------16-------14------------11-14-16---14-
d-12------------12-----------12-------12--12------12-------12--14-14----------14---
a----------------------------------------------------------------------------------
e----------------------------------------------------------------------------------
  and            in         disperfectweather wel find  a  p l a c e  together



g---11-14----11-14-----11-12-11-12-11-12-----16------14------------11-14-16-14-14-
d-12------12-------12--------------------12-----12------12--14-14--------------14-
a---------------------------------------------------------------------------------
e---------------------------------------------------------------------------------
inthewaterwherethe    scent of  my  emotion  alltheworldcould pass me  by 


g-----11--14------11--14------11----------16-------14------------11-14/1614-----
d-12----------12----------12------12--12------12-------12--14-14----------------
a-------------------------------------------------------------------------------
e-------------------------------------------------------------------------------
  fly         away        on   my zephyr   we g o n n a  l i v e   forever 


                
           
  
      Outro

g----11--14----11--14----11-12-11-12----16----14-------------11--14--16----14-
d-12--------12--------12-------------12----12----12--14--14-------------14----
a-----------------------------------------------------------------------------
e-----------------------------------------------------------------------------
                     
g----11--14----11--14----11-12-11-12----16----14-------------11--14--16----14-
d-12--------12--------12-------------12----12----12--14--14-------------14----
a-----------------------------------------------------------------------------
e-----------------------------------------------------------------------------
                     
g----11--14----11--14----11-12-11-12----16----14-------------11--14--16----14-
d-12--------12--------12-------------12----12----12--14--14-------------14----
a-----------------------------------------------------------------------------
e-----------------------------------------------------------------------------
                     
g----11--14----11--14----11-12-11-12----16----14-------------11--14--16--14----
d-12--------12--------12-------------12----12----12--14--14-----------------0--
a------------------------------------------------------------------------------
e------------------------------------------------------------------------------

Qualquer dúvida me mandem um e-mail.




Enviada por Sem inscrição
Nº de acordes: