Red Hot Chili Peppers

Storm In A Teacup

Red Hot Chili Peppers

141 exibições
Intro
G|-12-12-12-12-12-12-12-12-12-12-12-12-12-12-12-12--| *Come in easily
D|--------------------------------------------------|  hitting the string
A|--------------------------------------------------|  then eventually
E|--------------------------------------------------|  hit harder*

Verse Part 1
G|-----------------5-3--|
D|------5---5-----------|
A|--------------1/3-----|
E|--3-3---3---3---------|
    S S P S P S S  P P
Verse Part 2
G|------------------------|
D|------------------------|
A|------------------3-1---|
E|--3-1-3--3-3-3-1--------|

G|------------------------|
D|------------------------|
A|-----------------3---1--|
E|--3-1-3--3-3-3-1---1----|


Chorus Part 1
G|--------------------------------------|
D|--------------------------------------|
A|--3-3-3-3--1-1-1-1--------------------|
E|--------------------1-1-1-1--3-3-3-3--|

Chorus Part 2
G|-----------------------------------------------------|
D|-----------------------------------------------------|
A|--3-3-3-3--1-1-1-1--5-5-5-5-5-5-5-5-5-5-5-5-8-8-8-8--|
E|-----------------------------------------------------|

Chorus Part 3
G|-----------------------------------------------------------|
D|-----------------------------------------------------------|
A|-----------------------------------------------------------|
E|--3-3-3-1--3-3-3-1--3-3-3-1--3-3-3-1--3-3-3-1--3-3-3-1--3--|

Bridge
G|-------------------------------------------------------------------------|
D|------------------------------------------10----------------8------------|
A|--10-----8---------------------8--8h10-------12-10-8---8-10---10-8-------|
E|---------------10-----8---8h10--10--------------------------------10----8|

Outro                                                  End On
G|--------------------------------------| *Repeat 2x*  G|---|
D|--------------------------------------|              D|---|
A|--------------------------------------|              A|---|
E|--3-3-3-1--3-3-3-1--3-3-3-1--3-3-3-1--|              E|-3-|

Order

Intro(2x)
Verse Part 1(8x)
Verse Part 2(4x)
Chorus Part 1(3x)
Chorus Part 2(1x)
Chorus Part 3(1x)
Intro(2x)
Verse Part 1(8x)
Chorus Part 1(3x)
Chorus Part 2(1x)
Chorus Part 3(1x)
Bridge(1x)
Verse Part 1(8x)
Chorus Part 1(3x)
Chorus Part 2(1x)
Outro(1x)


Enviada por Sem inscrição
Nº de acordes: