Intro:

   F#m
   +   +   +   +    +   +   +   +   
G||----2-----------|----2-----------||
D|·--4-----2-------|--4-----2-------·|
A|·------4---2-4-0-|------4---2-4---·|
E||2---------------|2---------------|| x2

Verse (x2):

   F#m
   +   +   +   +    +   +   +   +    +   +   +   +    +   +   +   +
G||----2-----------|----2-----------|----2-----------|----2-----------||
D|·--4-----2-------|--4-----2-------|--4-----2-------|--4-----2-------·|
A|·------4---2-4-0-|------4---2-4---|------4---2-4-0-|------4---2-4---·|
E||2---------------|2-------------0-|2---------------|2---------------|| x3

  A                C
  +   +   +   +    +   +   +   +   
G|----------------|----------------|
D|----------------|----------------|
A|----------------|--3-3-3-3-3-3-3-|
E|--5-5-5-5-5-5-5-|5---------------|

Pre-Chorus (x2):

   F#m                              E
   +       +       +       +        +       +       +       +   
G||--------14~---------14~-----14~-|--------14~---------14~-----14~-|
D|·--------------------------------|--------------------------------|
A|·--------------------------------|--------------------------------|
E||14--14----------14------14------|12--12----------12------12------|

  D                                A
  +       +       +       +        +       +       +       +   
G|--------14~---------14~-----14~-|--------------------14----------|
D|--------------------------------|--------14~-------------14~-----|
A|--------------------------------|12--12--------------------------|
E|10--10----------10------10------|--------------------------------|

  F#m                              E
  +       +       +       +        +       +       +       +   
G|--------14~---------14~-----14~-|--------14~---------14~---------|
D|--------------------------------|--------------------------------|
A|--------------------------------|--------------------------------|
E|14--14----------14------14------|12--12----------12------12------|

  Bm
  +   +   +   +    +   +   +   +   
G|----------------|----------------||
D|----------------|----------------·|
A|----------------|----------------·|
E|7-7-7-7-7-7-7-7-|7-7-7-7-7-7-7-7-||

Chorus 1:

  A                E                B
  +   +   +   +    +   +   +   +    +   +   +   +    +       +       +       +
G|-------x6-7-9---|----------------|----------------|--------------------------------|
D|7---7-----------|--------6-7-9---|----------------|----7------9/11---------9-------|
A|----------------|7---7-----------|--------6-7---9-|--------------------------------|
E|----------------|----------------|7---7-----------|--------------------------------|

  A                E                B
  +   +   +   +    +   +   +   +    +   +   +   +    +       +       +       +
G|-------x6-7-9---|----------------|----------------|------------6--/9---------------|
D|7---7-----------|-------x6-7-9---|----------------|----7--/9-----------11--9---7---|
A|----------------|7---7-----------|--------6-7---9-|--------------------------------|
E|----------------|----------------|7---7-----------|--------------------------------|

  A                E                B
  +   +   +   +    +   +   +   +    +   +   +   +    +       +       +       +
G|-------x6-7-9---|----------------|----------------|----------------9---11--9-------|
D|7---7-----------|-------x6-7-9---|----------------|----7---9--11-------------119---|
A|----------------|7---7-----------|-------x6-7---9-|--------------------------------|
E|----------------|----------------|7---7-----------|--------------------------------|

  A                E                B
  +   +   +   +    +   +   +   +    +   +   +   +    +   +   +   +    
G|-------x6-7-9---|----------------|----------------|----------------|
D|7---7-----------|-------x6-7-9---|----9---9-----9-|----9-----9-----|
A|----------------|7---7-----------|----------------|----------------|
E|----------------|----------------|7-----7---7-----|--7-----7---7---|

Verse:

   F#m
   +   +   +   +    +   +   +   +
G||----2-----------|----2-----------||
D|·--4-----2-------|--4-----2-------·|
A|·------4---2-4-0-|------4---2-4---·|
E||2---------------|2---------------|| x5

  A                C
  +   +   +   +    +   +   +   +   
G|----------------|----------------|
D|----------------|----------------|
A|----------------|--3-3-3-3-3-3-3-|
E|--5-5-5-5-5-5-5-|5---------------|

Pre-Chorus.

Chorus 2:

  A                E                B
  +   +   +   +    +   +   +   +    +   +   +   +    +       +       +       +
G|-------x6-7-9---|----------------|----------------|--------------------------------|
D|7---7-----------|-------x6-7-9---|----------------|----7-------9-------11--9-------|
A|----------------|7---7-----------|--------6-7---9-|--------------------------------|
E|----------------|----------------|7---7-----------|--------------------------------|

  A                E                B
  +   +   +   +    +   +   +   +    +   +   +   +    +       +       +       +
G|-------x6-7-9---|----------------|----------------|--------------9-11--9-----------|
D|7---7-----------|-------x6-7-9---|----------------|----7-----9h11----------11--9---|
A|----------------|7---7-----------|--------6-7---9-|--------------------------------|
E|----------------|----------------|7---7-----------|--------------------------------|

  A                E                B
  +   +   +   +    +   +   +   +    +   +   +   +    +       +       +       +
G|-------x6-7-9---|----------------|----------------|--------------------------------|
D|7---7-----------|-------x6-7-9---|----------------|----7-------9-------11--9-------|
A|----------------|7---7-----------|--------6-7---9-|--------------------------------|
E|----------------|----------------|7---7-----------|--------------------------------|

  A                E                B
  +   +   +   +    +   +   +   +    +   +   +   +    +       +       +       +
G|-------x6-7-9---|----------------|------------7-9-|14--14--14--14--14--14--14--14--|
D|7---7-----------|-------x6-7-9---|--------7-9-----|--------------------------------|
A|----------------|7---7-----------|--6-7-9---------|--------------------------------|
E|----------------|----------------|7---------------|--------------------------------|

  A                E                B
  +   +   +   +    +   +   +   +    +   +   +   +    +       +       +       +
G|-------x6-7-9---|----------------|----------------|----------9h11--9---------------|
D|7---7-----------|-------x6-7-9---|----------------|----7-9h11----------11--9---7---|
A|----------------|7---7-----------|-------x6-7---9-|--------------------------------|
E|----------------|----------------|7---7-----------|--------------------------------|

  A                E                B
  +   +   +   +    +   +   +   +    +   +   +   +    +       +       +       +
G|-------x6-7-9---|----------------|----------------|--------------------------------|
D|7---7-----------|-------x6-7-9---|----------------|----------------9--/11--9-------|
A|----------------|7---7-----------|------6---7---9-|------------9-------------------|
E|----------------|----------------|7---7-----------|----7---7-----------------------|

  A                E                B
  +   +   +   +    +   +   +   +    +   +   +   +    +       +       +       +
G|-------x6-7-9---|----------------|----------------|--------------------------------|
D|7---7-----------|-------x6-7-9---|----------------|9---11--9-------9---11--9-------|
A|----------------|7---7-----------|-------x6-7--912|------------9h12------------9---|
E|----------------|----------------|7---7---------h-|--------------------------------|

  A                E                B
  +   +   +   +    +   +   +   +    +   +   +   +    +       +       +       +
G|-------x6-7-9---|----------------|----------------|--------141611--9---------------|
D|7---7-----------|-------x6-7-9---|------------7-9-|11--1416--h---------11--9-------|
A|----------------|7---7-----------|--6---7---9-----|------h---------------------7---|
E|----------------|----------------|7---------------|--------------------------------|

  A                E                B
  +   +   +   +    +   +   +   +    +   +   +   +    +       +       +       +
G|-------x6-7-9---|----------------|----------------|------9-11------9---------------|
D|7---7-----------|-------x6-7-9---|----------------|7-9h11--------------11--9-------|
A|----------------|7---7-----------|--6---7---9-----|--------------------------------|
E|----------------|----------------|7---------------|--------------------------------|

  A                E                B
  +   +   +   +    +   +   +   +    +   +   +   +    +   +   +   +    
G|--------9-------|----------------|----------------|----------------|
D|7---------------|----------9-----|----------------|----------------|
A|----------------|7-----7/9---9---|----------------|----------------|
E|----------------|----------------|7//\////\//|/\///\///\/|

  +   +   +   +  
G|----------------|
D|----------------|
A|----------------|
E|7/19----7~------|



Enviada por Sem inscrição
Nº de acordes: