Red Hot Chili Peppers

Naked In The Rain

Red Hot Chili Peppers

63 exibições
intro to drum beat
g--------
d--------
a--------let this note ring out fully
d--0----

this is the main rif for most of the song
  + +    -  +  + +                -   -       +      
g-----------------------------------------------------
d---------5--------------------------5---5----------
a-----------------------------------------------------
d-35------0---35-----------------------------0--

Prechorus
 "goin to the jungle"and"naked in the rain with a..."  part

   +  +    -  +  + +     -   -     +
g-----------7---------------7--7--------
d------0----------------------------------
a--3-----------0--35-------------------
d--------------------------------------0--

chorus   "Naaaaaaked in the rain"

g----------------------------------------
d----------------------------------------it then goes back to
a--------------------3------------------ the main rif.
d--3------------------------------------

Bass Solo
   +   +  +  +     +  +       +        + +
g------------------------------------------------------
d-----------------------------------------------------
a----------1--1-----1---3-------4--------45-----
d--3---5---------------------------------------------

   +  +       +        + +      -     -         +
g---------------------------------------------------------
d-----------------------------------3----3h5------------
a----------x--1-----x--34--x-------------------------
d--3--5-------------------------------------------3-----

   +  +         -
g-------------------------------------------------------
d----------------3--0-5--3---------------------------
a-------------------------------5--3-------4----1----
d--3--5----x------------------------------------------

g-12h14--14--12h14--14--12h14--14--12h14-14--10h12---
d-----------------------------------------------------------------------------

a-----------------------------------------------------------------------------

d-----------------------------------------------------------------------------


g-12--9h10--8h9-9--7h8-8---7-7--5--0---5----
d---------------------------------------------------------
a---------------------------------------------------------
d--------------------------------------------------------
    + +   +  +  +  +   +
g---------------------------------------3----------------
d----------5--3-----------3----5---------5-----------
a------------------5--6--------------------------------
d--5--5-----------------------------------------------

g----6--610---10----1019--19---17p15-------------
d---------------------------------------------------15--------
a---------------------------------------------------------------
d---------------------------------------------------------------




Enviada por Sem inscrição
Nº de acordes: