Intro & Versos 
G-|----------------------------------------------------------------- 
D-|----------------------------------------------------------------- 
A-|-3--x-3--x--3--------3----3--------3----xx----3--------3---3--x—
E-|----------------------------------------------------------------- 

G-|----------------------------------------------------------------- 
D-|----------------------------------------------------------------- 
A-|-3-----3---3--3-----3--------3----------3------3---------3-----3- 
E-|----------------------------------------------------------------- 

Bit Before Chorus 
G-|------------------------------|-------------------------------------- 
D-|---------------1------1-------|-------------------------------------- 
A-|-3---3--x---3-----3------3--1-|-3----3-----3---1---1----------------- 
E-|------------------------------|-------------------------3--2--1/----- 
Chorus 
G-|--------------------------------------------------------------------- 
D-|--------------------------------------------------------------------- 
A-|--5--5---3--3--1--1--0-x--1---1-1-1-1----0--0------------------------ 
E-|------------------------------------------------3--3--1/------------- 

G-|--------------------------------------------------------------------- 
D-|-----------------------------------------------3---3--2--2----------- 
A-|-5--5---3--3--1--1--0-x--1---1-1-1-1----0--0------------------------- 
E-|--------------------------------------------------------------------- 

G-|--------------------------------------------------------------------- 
D-|--------------------------------------------------------------------- 
A-|-5--5---3--3--1--1--0-x--1---1-1-1-1----0--0------------------------- 
E-|-----------------------------------------------3--3---1/------------- 

G-|--------------------------------------------------------------------- 
D-|---------------------------------------------5---3-----5/6---5-3--5—
A-|-5--5---3--3--1--1--0-x--1---1-1-1-1----0-----------5---------------- 
E-|--------------------------------------------------------------------- 

G-|-------------------|------------------------------------------------- 
D-|--3----------------|------------------------------------------------- 
A-|------5--3------5--|------------------------------------------------- 
E-|-------------------|-------------------------------------------------
 
 


Enviada por Sem inscrição
Nº de acordes: