Paramore

Fences

Paramore

173 exibições
Intro
G|--------------------------------------------------------------------|
D|-----------------4--------4---7---------------------4---------------|
A|--4-5-7---4-5-7-----7-5-4---7---5-----4-5-7---4-5-7---7-5-4-5-7-5-4-|
E|7-------7---------------------------7-------7-----------------------|

Verso
G|--------------------------------------------------------------------|
D|-----------------4--------4---7---------------------4---------------|
A|--4-5-7---4-5-7-----7-5-4---7---5-----4-5-7---4-5-7---7-5-4-5-7-5-4-|
E|7-------7---------------------------7-------7-----------------------|

G|-------------------------|
D|-------------------------|
A|-------------------------|
E|0-0-0-0-0-0-0-0-5-5-5-5-5|

verso x1

Pré-Refrão
G|---------------------------------|
D|---------------------------------|
A|----5~----------------5----------|
E|0~------5~--0--2--3-5----5-22222-|

Refrão
G|-----------------------------------------------------------------------|
D|-----------------------------4-5-4-5p4----------------4-5-4-5p4--------|
A|-------------------------2-5----------------------2-5------------------|
E|7---3-0-2-7-7--3-0-2--3----------------0-0-0-0-3---------------55-00-7|

Intro x4

G|-------------------------|
D|-------------------------|
A|-------------------------|
E|0-0-0-0-0-0-0-0-5-5-5-5-5|

Pré-Refrão x1

Ponte "yeah, yeah you're asking for it..."
G|-----------------|
D|-----------------|
A|--------5-5------|
E|0-0-3-3-----5-5--| x2

Breakdown
G|---------------------------------------------------------|
D|---------------------------------------------------------|
A|---------------------------------------------------------|
E|7-7-7-0-7-6-6-6-0-6-5-5-5-0-5-4-4-4-4-0-4-3-3-3-3-3-3-3-5| x2

G|---------------------------------|
D|--------4-5-4--------------------|
A|--4-5-7-------7-----2-5----------|
E|7----------------33------00-33---| x2

Ponte x2
Refrão
G|------------------------------------------------------------------------|
D|-----------------------------4-5-4-5p4----------------4-5-4-5p4---------|
A|-------------------------2-5----------------------2-5-------------------|
E|7---3-0-2-7-7--3-0-2--3----------------0-0-0-0-3---------------0-0-0-0-|

G|-----------------------------------------------------|
D|--------4-5-4-5p4----------------4-5-4---------------|
A|---2-5----------------------2-5----------5-----------|
E|-3----------------0-0-0-0-3------------3------55-00-7|

Intro x1

Final
G|-----------------------------------|
D|-----------------4--------4---444-4|
A|--4-5-7---4-5-7-----7-5-4---7------|
E|7-------7--------------------------|


Enviada por Sem inscrição
Nº de acordes: